Chuck Berry - No Particular Place To Go Chords & Tabs

 

No Particular Place To Go Chords & Tabs

Chuck Berry Chords & Tabs

Version: 1 Type: Tab 0 ratings
1 star 2 stars 3 stars 4 stars 5 stars
comments

No Particular Place To Go Tab

Artist Name: Chuck Berry
Song Name: No Particular Place To Go
Im 100 % , Rate Me 
[ Tab from: http://www.guitartabs.cc/tabs/c/chuck_berry/no_particular_place_to_go_tab.html ]
|--------------------------------------------------------------------------|
|-----15-15-15-15-15-----15-15-15-15-15-----15-15-15-15-15-----15-15-15-15-|
|-/16-16-16-16-16-16-/16-16-16-16-16-16-/16-16-16-16-16-16-/16-16-16-16-16-|
|-/17-17-17-17-17-17-/17-17-17-17-17-17-/17-17-17-17-17-17-/17-17-17-17-17-|
|--------------------------------------------------------------------------|
|--------------------------------------------------------------------------|
                                          ^ = Bend Up 1/4
|----|-----------------------------------------/6^-3-3-3-3-/6^-3-3-3-3-----|
|-15-|-----15-15-----15-15-----15-15-----15-15-/6--3-3-3-3-/6--3-3-3-3-----|
|-16-|-/16-16-16-/16-16-16-/16-16-16-/16-16-16-----------------------------|
|-17-|-/17-17-17-/17-17-17-/17-17-17-/17-17-17-----------------------------|
|----|---------------------------------------------------------------------|
|----|---------------------------------------------------------------------|
                                                         Play 12 Times
|-6^-3------5-3----------------3-3-3-3-3-----3-3-3-3-3-|----3-3------------|
|-6--3-5^-3-5-3-6-5-3---3-5-/6-3-3-3-3-3-/6^-3-3-3-3-3-|-6^-3-3------------|
|------5--3-----6-5-3-4-3-5-/6-----------/6------------|-6-----------------|
|---------------------5--------------------------------|-------------------|
|------------------------------------------------------|-------------------|
|------------------------------------------------------|-------------------|
             Play 6 Times              Play 9 Times
|-6-6-6-|-6^--------------|-6-6-6-|-6^--------------|-6-6-6-3-3------------|
|-6-6-6-|-6---------------|-6-6-6-|-6---------------|-6-6-6-3-3-6-5-3------|
|-------|-----------------|-------|-----------------|-----------6-5-3-4-4--|
|-------|-----------------|-------|-----------------|-----------------5-5--|
|-------|-----------------|-------|-----------------|----------------------|
|-------|-----------------|-------|-----------------|----------------------|
                          Play 2 Times
|----------3-3-3-3-----|---3-------3-----|---3-3-3-3-3-3--3-3-3-5^-5-3-----|
|-3-5-5-5^-3-3-3-3-5-3-|---3-5-3---3-5-3-|---3-3-3-3-3-3--3-3-3-5--5-3-5-3-|
|-3-5-5-5----------5-3-|-4---5-3-4---5-3-|-4---------------------------5-3-|
|----------------------|-5-------5-------|-5-------------------------------|
|----------------------|-----------------|---------------------------------|
|----------------------|-----------------|---------------------------------|
       This Time Bend 1/2 , Play 4 Times  Back To 1/4 Bend , Play 5 Times
|-----|---------------------------------|---3-3-3-3-3----------------------|
|---3-|-5^-(5)-----5--------------------|-6^3-3-3-3-3----------------------|
|---3-|-5--(5)---3-5--------------------|-6--------------------------------|
|-5---|--------5------------------------|----------------------------------|
|-----|---------------------------------|----------------------------------|
|-----|---------------------------------|----------------------------------|
    Play 9 Times 
|-6^------------|-3--------------------------------------------------------|
|-5-------------|-3--------------------------------------------------------|
|---------------|-----------0-0-0-5-4--------------------------------------|
|---------------|---3-3-2-2-1-1-0-4-4--------------------------------------|
|---------------|-----------------6-5--------------------------------------|
|---------------|-----------------4-3--------------------------------------|

Thats All Of It. If You Have Questions About This Tab Or You Cant Understand
Something Email Me At Jack7878782001@Yahoo.com , Enjoy
Comments