Chuck Berry - Maybellene Chords & Tabs

 

Maybellene Chords & Tabs

Chuck Berry Chords & Tabs

Version: 1 Type: Tab 0 ratings
1 star 2 stars 3 stars 4 stars 5 stars
comments

Maybellene Tab

   
retabbed by james pugrad.THIS IS 100% RIGHT


                         MAYBELLENE

 intro
e-------------------------------------------------------|
b-------------------------------------------------------|
g--------10-10---10b-10b--------------------------------|
d------8-10-10-8-10b-10b--------------------------------|
a-8-10--------------------------------------------------|
e-------------------------------------------------------|
[ Tab from: http://www.guitartabs.cc/tabs/c/chuck_berry/maybellene_tab.html ]
verses
e-----------|
b-----------|
g-----------|
d-----------| RIFF 1
a-8-10-8-10-|
e-6-6--6--6-|

e-----------|
b-----------|
g-----------|
d-8-10-8-10-| RIFF 2
a-6-6--6-6--|
e-----------| NOTE AFTER THIS TO TO THE INTRO AND PLAY THAT 1 MORE TIME

ONCE U HAVE DONE THE INTRO AGAIN DO THIS
e-------------|
b-------------|
g-------------|
d-10-12-10-12-| RIFF 3
a-8--8--8--8--|
e-------------| AND THEN GO DO THE INTRO AGAIN
THE ORDER OF THE SONG IS
RIFF 1
RIFF 2 !READ IMPORTANT!=LISTEN TO THE SONG TO SEE HOW MANY TIMES TO PLAY THE
RIFF 1                VERSES
RIFF 3
RIFF 1
Comments