Chuck Berry - Johnny B Goode Chords & Tabs

 

Johnny B Goode Chords & Tabs

Chuck Berry Chords & Tabs

Version: 2 Type: Tab 0 ratings
1 star 2 stars 3 stars 4 stars 5 stars
comments

Johnny B Goode Tab

   
Any comments or questions can be send to "eraser49@hotmail.com"

b = bend
/13 = slide

e|-----------------5--6--6--5--6--6--5--6--6-6----------------------------|
B|---------6--8---5--6--6--5--6--6--5--6--6-6---9--8--6-------------------|
G|-----/7-----------------------------------------------------6--7--------|
D|------------------------------------------------------------------8-----|
A|------------------------------------------------------------------------|
E|------------------------------------------------------------------------|

e|------------------------------------------------------------------------|
B|---------------------------------6---8--6-------------------------------|
G|----------------------------7---7---7---7----/5---3---------------------|
D|--7--8--8--7--8--8--8--------------------------------5------------------|
A|--7--8--8--7--8--8--8---------------------------------------------------|
E|------------------------------------------------------------------------|

e|---------------------------------------6--------------------------------|
B|-----------6-------------6------------6-------------6-------------------|
G|--8(b)10------8(b)10--------8(b)10-------8(b)10-------------------------|
D|------------------------------------------------------------------------|
A|------------------------------------------------------------------------|
E|------------------------------------------------------------------------|
[ Tab from: http://www.guitartabs.cc/tabs/c/chuck_berry/johnny_b_goode_tab_ver_2.html ]
e|-----------------------------------------------------------6------------|
B|-----------6--------------6--------------6----------------6-------------|
G|-8(b)10--------8(b)10--------8(b)10----------8(b)10---------------------|
D|------------------------------------------------------------------------|
A|------------------------------------------------------------------------|
E|------------------------------------------------------------------------|

e|-------------6-------------6--------------6---------------7--5----------|
B|-------------6-------------6-----------------9---8---6--------9---8---6-|
G|---8(b)10------8(b)10---------8(b)10------------------------------------|
D|------------------------------------------------------------------------|
A|------------------------------------------------------------------------|
E|------------------------------------------------------------------------|
                       Rake
e|---------------6--------------------------6-------------6---------------|
B|---------------6----9--8--6--------------6-------------6----------------|
G|---8---6--7---7----------------8(b)10-------8(b)10----------------------|
D|------------------------------------------------------------------------|
A|------------------------------------------------------------------------|
E|------------------------------------------------------------------------|

e|------------------------------------------------------------------------|
B|---8----6---------------------------------------------------------------|
G|---8----6---------------------------------------------------------------|
D|-------------8----------------------------------------------------------|
A|------------------------------------------------------------------------|
E|------------------------------------------------------------------------|
Comments