Chuck Berry - Johnny B Goode Chords & Tabs

 

Johnny B Goode Chords & Tabs

Chuck Berry Chords & Tabs

Version: 3 Type: Bass Tab 0 ratings
1 star 2 stars 3 stars 4 stars 5 stars
comments

Johnny B Goode Bass Tab

Johnny B. Goode
           
 g----------0------------
 d------2-4----4-2-------
 a--0-4------------4-----  repeat 2x
 e-----------------------
          
 g------2-4-5-4-2--------
 d--0-4-----------4-0----
 a-----------------------  
 e-----------------------
[ Tab from: http://www.guitartabs.cc/tabs/c/chuck_berry/johnny_b_goode_btab_ver_3.html ]
 g----------0------------
 d------2-4----4-2-------
 a--0-4------------4-----  
 e-----------------------
 
 g----4-6-------2-4---------0--
 d--6-------0-4---------2-4----
 a-7----------------0-4--------
 e-----------------------------  repeat throughout song
 play this with a good guitarist!
Comments