Chuck Berry - Earth Angel Chords & Tabs

 

Earth Angel Chords & Tabs

Chuck Berry Chords & Tabs

Version: 1 Type: Tab 0 ratings
1 star 2 stars 3 stars 4 stars 5 stars
comments

Earth Angel Tab

Intro
e-3--3----------0--------0---0---2--2------------|
B-3----3---------0-------1---1---3----3----------|
G-0------0---0-----0-----0---0---2------2--------|
D-0----------2-----------2-----------------------|
A-2----------2-----------3-----------------------|
E-3----------0-----------------------------------|

Verses
Strum each chord a couple times
e--3-------------0-----2-------|
B--3-------------1-----3-------|
G--0------0------0-----2-------|
D--0------2------2-------------|
A--2------2------3-------------|
E--3------0--------------------|
[ Tab from: http://www.guitartabs.cc/tabs/c/chuck_berry/earth_angel_tab.html ]
Comments