Chubheads - Worm Boy Chords & Tabs

 

Worm Boy Chords & Tabs

Chubheads Chords & Tabs

Version: 1 Type: Bass Tab 0 ratings
1 star 2 stars 3 stars 4 stars 5 stars
comments

Worm Boy Bass Tab

The Chubheads
worm boy

Intro

G:--11111111--666666666------------------------|
D:----------------------6666666666--1111111111-|
A:---------------------------------------------|
E:---------------------------------------------|  x3

then add and hold
G:--------------------
D:--------------------
A:--------------------
E:----0--------------- x1
[ Tab from: http://www.guitartabs.cc/tabs/c/chubheads/worm_boy_btab.html ]
Verse
G:--------------------------------
D:------------------------33333333
A:333333--5555555-----------------
E:-----------------7777777--------  x9

chorus
G:---------------------
D:6-6-6-------2-2-2----
A:------4-4-4-------444
E:---------------------  x6

outro
G:----3------1--------
D:44-4--44-4---44-----
A:---------------4hold
E:--------------------

Thats it should be easy enough.
Have fun!
Comments