Chubby Checker - Limbo Rock Chords & Tabs

 

Limbo Rock Chords & Tabs

Chubby Checker Chords & Tabs

Version: 1 Type: Tab 0 ratings
1 star 2 stars 3 stars 4 stars 5 stars
comments

Limbo Rock Tab

Chubby Checker
"Limbo Rock"


Standard Tuning (eBGDAE)

Intro:


e|---------------------------|-------------------------||
B|----------3--3-3-----3-----|---------------3---0-----||  x2
G|--0-0--4----------4--------|--0-0--4--2--2---2-------||
D|---------------------------|-------------------------||
A|---------------------------|-------------------------||
E|---------------------------|-------------------------||



While Singing:
[ Tab from: http://www.guitartabs.cc/tabs/c/chubby_checker/limbo_rock_tab.html ]
e||---------------------------|-------------------------|
B||----------3--3-3-----3-----|---------------3---0-----|
G||--0-0--4----------4--------|--0-0--4--2--2---2-------|
D||---------------------------|-------------------------|
A||---------------------------|-------------------------|
E||---------------------------|-------------------------|


e|--0-0----0--0-0----0-------|--0-0---3--3-0------------|
B|------1---------1----------|------3--------3--0-------|
G|---------------------------|--------------------------|
D|---------------------------|--------------------------|
A|---------------------------|--------------------------|
E|---------------------------|--------------------------|


e|---------------------------|-------------------------||
B|------------3--------------|--0----------------------||  Repeat
G|--4--2--2-2---2-0----------|-----2--0--0-0---0-------||
D|---------------------------|---------------2---------||
A|---------------------------|-------------------------||
E|---------------------------|-------------------------||







::Madness::
Comments