Chubby Checker - Lets Twist Again Chords & Tabs

 

Lets Twist Again Chords & Tabs

Chubby Checker Chords & Tabs

Version: 1 Type: Bass Tab 0 ratings
1 star 2 stars 3 stars 4 stars 5 stars
comments

Lets Twist Again Bass Tab

--------------------------------------
let's twist again / chubby checker
--------------------------------------

tabbed by thomas



verse 1;
G||--------------------------|--------------------------||
D||--------3--6-----3--6-----|--8--------------------8--||
A||--4--4--------4--------4--|-----8-----8-----5--8-----||
E||--------------------------|--------6-----6-----------||

verse 2;
G||--------------------------|--------------------------||
D||--------------------------|--6--6--------6--4--3-----||
A||--------4--4--------4--4--|--------6--6-----------6--||
E||--2--2--------2--2--------|--------------------------||
[ Tab from: http://www.guitartabs.cc/tabs/c/chubby_checker/lets_twist_again_btab.html ]
verse 3;
G||--------------------------|--------------------------||
D||--4--4-----5--6--6-----6--|-----3--6--3--------3--6--||
A||--------4-----------6-----|--4-----------4--4--------||
E||--------------------------|--------------------------||



chorus;
G||--------------------------|--------------------------||
D||--4--4--------4--4--3-----|--------3--6-----3--6-----||
A||--------4--4-----------6--|--4--4--------4--------4--||
E||--------------------------|--------------------------||

G||--------------------------|--------------------------||
D||--4--4--------4-----4-----|--6--6--------6--4--3-----||
A||--------4--4-----4-----4--|--------6--6-----------6--||
E||--------------------------|--------------------------||



verse you should play:

verse1
verse2
verse1
verse3

...and combinate with pauses at songs, thinking ain't painful.
Comments