Chronic Future - Time And Time Again Chords & Tabs

 

Time And Time Again Chords & Tabs

Chronic Future Chords & Tabs

Version: 3 Type: Tab 0 ratings
1 star 2 stars 3 stars 4 stars 5 stars
comments

Time And Time Again Tab

   
Band - Chronic Future
Song - Time and Time Again
Tuning: Standard

   Verse 1: 
e|------------|-----------|-----------|-----------|-----------|-----------|-----------|
B|------------|-----------|-----------|-----------|-----------|-----------|-----------|
G|--8--8--8--8|-8--8--8--8|-6--6--6--6|-6--6--6--6|-4--4--4--4|-6--6--6--6|-8--8--8--8|
D|------------|-----------|-----------|-----------|-----------|-----------|-----------| x3
A|-6--6--6--6-|5--5--5--5-|4--4--4--4-|3--3--3--3-|2--2--2--2-|4--4--4--4-|6--6--6--6-|
E|------------|-----------|-----------|-----------|-----------|-----------|-----------|

e|---------------|
B|---------------|
G|8-x-8-x-8-x-8-x|
D|8-x-8-x-8-x-8-x|
A|6-x-6-x-6-x-6-x|
E|---------------|

Chorus:
e|------------|------------|------------|------------|------------|------------|------------|
B|------------|------------|------------|------------|------------|------------|------------|
G|8-8--8-x-8-x|8-8--8-x-8-x|6-6--6-x-6-x|6-6--6-x-6-x|4-4--4-x-4-x|6-6--6-x-6-x|8-8--8-x-8-x|
D|8-8--8-x-8-x|8-8--8-x-8-x|6-6--6-x-6-x|6-6--6-x-6-x|4-4--4-x-4-x|6-6--6-x-6-x|8-8--8-x-8-x|
A|6-6--6-x-6-x|5-5--5-x-5-x|4-4--4-x-4-x|3-3--3-x-3-x|2-2--2-x-2-x|4-4--4-x-4-x|6-6--6-x-6-x|
E|------------|------------|------------|------------|------------|------------|------------|

e|--------------------|
B|--------------------|
G|8-x-8-x-8-8-8-8-8-8-|
D|8-x-8-x-8-8-8-8-8-8-|
A|6-x-6-x-6-6-6-6-6-6-|
E|--------------------|

Verse 2:                                               
e|------------|-----------|-----------|-----------|-----------|-----------|-----------|
B|------------|-----------|-----------|-----------|-----------|-----------|-----------|
G|--8--8--8--8|-8--8--8--8|-6--6--6--6|-6--6--6--6|-4--4--4--4|-6--6--6--6|-8--8--8--8|
D|------------|-----------|-----------|-----------|-----------|-----------|-----------| x3
A|-6--6--6--6-|5--5--5--5-|4--4--4--4-|3--3--3--3-|2--2--2--2-|4--4--4--4-|6--6--6--6-|
E|------------|-----------|-----------|-----------|-----------|-----------|-----------|

e|--------------------|
B|--------------------|
G|8-x-8-x-8-8-8-8-8-8-|
D|8-x-8-x-8-8-8-8-8-8-|
A|6-x-6-x-6-6-6-6-6-6-|
E|--------------------|
[ Tab from: http://www.guitartabs.cc/tabs/c/chronic_future/time_and_time_again_tab_ver_3.html ]
Chorus:
e|------------|------------|------------|------------|------------|------------|------------|
B|------------|------------|------------|------------|------------|------------|------------|
G|8-8--8-x-8-x|8-8--8-x-8-x|6-6--6-x-6-x|6-6--6-x-6-x|4-4--4-x-4-x|6-6--6-x-6-x|8-8--8-x-8-x|
D|8-8--8-x-8-x|8-8--8-x-8-x|6-6--6-x-6-x|6-6--6-x-6-x|4-4--4-x-4-x|6-6--6-x-6-x|8-8--8-x-8-x|
A|6-6--6-x-6-x|5-5--5-x-5-x|4-4--4-x-4-x|3-3--3-x-3-x|2-2--2-x-2-x|4-4--4-x-4-x|6-6--6-x-6-x|
E|------------|------------|------------|------------|------------|------------|------------|

e|--------------------|
B|--------------------|
G|8-x-8-x-8-8-8-8-8-8-|
D|8-x-8-x-8-8-8-8-8-8-|  x2
A|6-x-6-x-6-6-6-6-6-6-|
E|--------------------|

Interlude:
e|---------------|---------------|---------------|---------------|----|----|---------------|
B|---------------|---------------|---------------|---------------|----|----|---------------|
G|8-x-8-x-8-x-8-x|8-x-8-x-8-x-8-x|6-x-6-x-6-x-6-x|6-x-6-x-6-x-6-x|4--4|6--6|8-8-8-8-8-8-8-8|
D|8-x-8-x-8-x-8-x|8-x-8-x-8-x-8-x|6-x-6-x-6-x-6-x|6-x-6-x-6-x-6-x|4--4|6--6|8-8-8-8-8-8-8-8| x2
A|6-x-6-x-6-x-6-x|5-x-5-x-5-x-5-x|4-x-4-x-4-x-4-x|3-x-3-x-3-x-3-x|2--2|4--4|6-6-6-6-6-6-6-6|
E|---------------|---------------|---------------|---------------|----|----|---------------|

Bridge:
e|-------|---------|
B|-------|---------|
G|--8----|--6------|
D|-------|---------| x2
A|6-----5|4-----3-4|
E|-------|---------|
                 x1     x3
e|--x----|--x------|------|---------------|
B|--x----|--x------|------|---------------|
G|--x----|--x------|------|8-x-8-x-8-x-8-x|
D|--x----|--x------|----8-|8-x-8-x-8-x-8-x|
A|6-x-6-5|4-x-4-3-4|6----9|6-x-6-x-6-x-6-x|
E|--x----|--x------|------|---------------|


Chorus:
e|------------|------------|------------|------------|------------|------------|------------|
B|------------|------------|------------|------------|------------|------------|------------|
G|8-8--8-x-8-x|8-8--8-x-8-x|6-6--6-x-6-x|6-6--6-x-6-x|4-4--4-x-4-x|6-6--6-x-6-x|8-8--8-x-8-x|
D|8-8--8-x-8-x|8-8--8-x-8-x|6-6--6-x-6-x|6-6--6-x-6-x|4-4--4-x-4-x|6-6--6-x-6-x|8-8--8-x-8-x| x2
A|6-6--6-x-6-x|5-5--5-x-5-x|4-4--4-x-4-x|3-3--3-x-3-x|2-2--2-x-2-x|4-4--4-x-4-x|6-6--6-x-6-x|
E|------------|------------|------------|------------|------------|------------|------------|

                                                   x2                      x2
e|------------|------------|------------|------------|-------|-------|---------|
B|------------|------------|------------|------------|-------|-------|---------|
G|8-8--8-x-8-x|8-8--8-x-8-x|6-6--6-x-6-x|6-6--6-x-6-x|4-4--4-|6-6--6-|(8)-8--8-|
D|8-8--8-x-8-x|8-8--8-x-8-x|6-6--6-x-6-x|6-6--6-x-6-x|4-4--4-|6-6--6-|(8)-8--8-|
A|6-6--6-x-6-x|5-5--5-x-5-x|4-4--4-x-4-x|3-3--3-x-3-x|2-2--2-|4-4--4-|(6)-6--6-|
E|------------|------------|------------|------------|-------|-------|---------|

End.
Comments