Chronic Future - Time And Time Again Chords & Tabs

 

Time And Time Again Chords & Tabs

Chronic Future Chords & Tabs

Version: 2 Type: Tab 0 ratings
1 star 2 stars 3 stars 4 stars 5 stars
comments

Time And Time Again Tab

-------------------------------------------------------------------------------
             Time and Time Again (Guitar 2) - Chronic Future
-------------------------------------------------------------------------------
Tabbed by: BooBoo lovin Mike
Email:

Tuning: Standard

This is the second tab ive ever done. this is guitar 2. hope it helps

  x3 (clean)Verse 1. Along with guitar one in verse 
e|----------------------------------------------------------------|
B|----------------------------------------------------------------|
G|------9-----------9-----0-----9-------------9-------------------|
D|----------------------------------------------------------------|
A|-7-----------6--------------------------------------------------|
E|--------------------------------------9-------------------------|
  x1 Chorus (Distortion) 
e|----------------------------------------------------------------------|
B|----------------------------------------------------------------------|
G|-9-9-9999--9-9-9999--7-7-7777--7-7-7777--5-5-5555--7-7-7777--5-5-5555-|
D|-9-9-9999--9-9-9999--7-7-7777--7-7-7777--5-5-5555--7-7-7777--5-5-5555-|
A|-7-7-7070--6-6-6060--5-5-5050--4-4-4040--3-3-3030--5-5-5050--7-7-7070-|
E|----------------------------------------------------------------------|

 x3 (clean)Verse 2. Along with guitar one in verse 
e|----------------------------------------------------------------|
B|----------------------------------------------------------------|
G|------9-----------9-----0-----9-------------9-------------------|
D|----------------------------------------------------------------|
A|-7-----------6--------------------------------------------------|
E|--------------------------------------9-------------------------|
  x1 Chorus (Distortion) 
e|----------------------------------------------------------------------|
B|----------------------------------------------------------------------|
G|-9-9-9999--9-9-9999--7-7-7777--7-7-7777--5-5-5555--7-7-7777--5-5-5555-|
D|-9-9-9999--9-9-9999--7-7-7777--7-7-7777--5-5-5555--7-7-7777--5-5-5555-|
A|-7-7-7070--6-6-6060--5-5-5050--4-4-4040--3-3-3030--5-5-5050--7-7-7070-|
E|----------------------------------------------------------------------|
[ Tab from: http://www.guitartabs.cc/tabs/c/chronic_future/time_and_time_again_tab_ver_2.html ]
  x1 2nd Chorus (Distortion)
e|--------------------------------------------------------------|
B|-x2---x2---x2---x2---x2---x2---x2-----------------------------|
G|-5555-5555-7777-7777-5555-7777-9999---------------------------|
D|-5555-5555-7777-7777-5555-7777-9999---------------------------|
A|-7070-6060-5050-4040-3030-5050-7070---------------------------|
E|--------------------------------------------------------------|
  x2 Bridge (Distortion)                x1 Let each cord ring
e|------------------------------------|------------------------)
B|------------------------------------|------------------------)
G|-5-5-5-5--5-5-5-5--7-7-7-7--7-7-7-7-|-5-----7-----9----------)
D|-5-5-5-5--5-5-5-5--7-7-7-7--7-7-7-7-|-5-----7-----9----------)
A|-7-7-7-7--6-6-6-6--5-5-5-5--4-4-4-4-|-3-----5-----7----------)
E|------------------------------------|------------------------)

  x1 Verse 2. Mostly guitar one but at the very end play
e|-----------------------------------------------------------|
B|-------0------------0---------------0----------------------|
G|-----------0-------------0--------------0------------------|
D|-----------------------------------------------------------|
A|-3-------------5---------------7---------------------------|
E|-----------------------------------------------------------|

Chorus/Ending
  x1 Chorus (Distortion) 
e|----------------------------------------------------------------------|
B|----------------------------------------------------------------------|
G|-9-9-9999--9-9-9999--7-7-7777--7-7-7777--5-5-5555--7-7-7777--5-5-5555-|
D|-9-9-9999--9-9-9999--7-7-7777--7-7-7777--5-5-5555--7-7-7777--5-5-5555-|
A|-7-7-7070--6-6-6060--5-5-5050--4-4-4040--3-3-3030--5-5-5050--7-7-7070-|
E|----------------------------------------------------------------------|

  x1 2nd Chorus (Distortion)
e|--------------------------------------------------------------|
B|-x2---x2---x2---x2---x2---x2---x2-----------------------------|
G|-5555-5555-7777-7777-5555-7777-9999---------------------------|
D|-5555-5555-7777-7777-5555-7777-9999---------------------------|
A|-7070-6060-5050-4040-3030-5050-7070---------------------------|
E|--------------------------------------------------------------|

 x2 Chorus (Distortion) x2 Let each cord ring      
e|---------------------|------------------------)
B|-x2---x2---x2---x2---|------------------------)
G|-5555-5555-7777-7777-|-5-----7-----9----------)
D|-5555-5555-7777-7777-|-5-----7-----9----------)
A|-7777-6666-5555-4444-|-3-----5-----7----------)
E|---------------------|------------------------)
Comments