Chronic Future - Time And Time Again Chords & Tabs

 

Time And Time Again Chords & Tabs

Chronic Future Chords & Tabs

Version: 1 Type: Tab 0 ratings
1 star 2 stars 3 stars 4 stars 5 stars
comments

Time And Time Again Tab

-------------------------------------------------------------------------------
			     Time and Time Again - Chronic Future
-------------------------------------------------------------------------------
Tabbed by:booboolovin mike
Email:?

Tuning:Standard
     After keyboard and beat,when singing starts
  x3  Verse 1
e|-------------------------------------------------------------|
B|--0-----0-----0---0----0----0----0----0----0---0----0-----0--|
G|---0-----0---------0----0---------0----0--------0----0-------|
D|-------------------------------------------------------------|
A|-7----7----7----6----6----6----5----5----5----4----4----4----|
E|-------------------------------------------------------------|
   x1                                          x1 pre-chorus
e|--------------------------------------------|--------------)
B|--0----0------0---0----0----0---0---0----0--|--------------)
G|---0----0----------0----0--------0---0------|-9-9-9999999--)
D|--------------------------------------------|-9-9-9999999--)
A|-3----3----3----5----5----5----7---7---7----|-7-7-7777777--)
E|--------------------------------------------|--------------)
[ Tab from: http://www.guitartabs.cc/tabs/c/chronic_future/time_and_time_again_tab.html ]
  x1    Chorus #1 
e|------------------------------------------------------------------------|
B|------------------------------------------------------------------------|
G|-9-9--9999-9-9--9999-7-7--7777--7-7-7777--5-5-5555--7-7-7777--9-9-9999--)
D|-9-9--9999-9-9--9999-7-7--7777--7-7-7777--5-5-5555--7-7-7777--9-9-9999--|
A|-7-7--0707-6-6--0606-5-5--0505--4-4-0404--3-3-0303--5-5-0505--7-7-0707--|
E|------------------------------------------------------------------------|
   x1 Before pre-verse
e|-----------------------------|
B|-----------------------------|
G|-9-9-9-99999999-------------|
D|-9-9-9-99999999-------------|
A|-0-7-0-77777777-------------|
E|-----------------------------|
  x3  Verse 2
e|-------------------------------------------------------------|
B|--0-----0-----0---0----0----0----0----0----0---0----0-----0--|
G|---0-----0---------0----0---------0----0--------0----0-------|
D|-------------------------------------------------------------|
A|-7----7----7----6----6----6----5----5----5----4----4----4----|
E|-------------------------------------------------------------|
   x1                                          x1 pre-chorus
e|--------------------------------------------|--------------)
B|--0----0------0---0----0----0---0---0----0--|--------------)
G|---0----0----------0----0--------0---0------|-9-9-9999999--)
D|--------------------------------------------|-9-9-9999999--)
A|-3----3----3----5----5----5----7---7---7----|-7-7-7777777--)
E|--------------------------------------------|--------------)
  x1    Chorus #2 
e|------------------------------------------------------------------------|
B|------------------------------------------------------------------------|
G|-9-9--9999--9-9-9999--7-7-7777--7-7-7777--5-5-5555--7-7-7777--9-9-9999--|
D|-9-9--9999--9-9-9999--7-7-7777--7-7-7777--5-5-5555--7-7-7777--9-9-9999--|
A|-7-7--0707--6-6-0606--5-5-0505--4-4-0404--3-3-0303--5-5-0505--7-7-0707--|
E|------------------------------------------------------------------------|
  x1 
e|----------------------------|
B|----------------------------|
G|-9-9-9-99999999------------|
D|-9-9-9-99999999------------|
A|-0-7-0-77777777------------|
E|----------------------------|
  x1 Chorus 2nd Time
e|-------------------------------------|
B|-x2---x2---x2---x2---x2---x2---x2----|
G|-9999-9999-7777-7777-5555-7777-9999--|
D|-9999-9999-7777-7777-5555-7777-9999--|
A|-7070-6060-5050-4040-3030-5050-7070--)
E|-------------------------------------|
 x1 Before Bridge
e|-----------------------------|
B|-----------------------------|
G|-9-9-9-99999999-------------|
D|-9-9-9-99999999-------------|
A|-0-7-0-77777777-------------|
E|-----------------------------|
  x2 Bridge                              Let each chord ring
e|-------------------------------------|------------------------)
B|-------------------------------------|------------------------)
G|-9-9-9-9--9-9-9-9--7-7-7-7--7-7-7-7--|-5-----7------9---------)
D|-9-9-9-9--9-9-9-9--7-7-7-7--7-7-7-7--|-5-----7------9---------)
A|-7-7-7-7--6-6-6-6--5-5-5-5--4-4-4-4--|-3-----5------7---------)
E|-------------------------------------|------------------------)
  x2 Verse #3                          x1 2nd part of verse
e|------------------------------------|---------------------)
B|--------0-----------0---------------|--0----0-----0----0--)
G|--------0-----------0---------------|--0----0-----0----0--)
D|-xx---------------------------------|-9----9--0--9----9---)
A|-xx--7-----6-----5-----4-----5---7--|----6----------------)
E|------------------------------------|---------------9-----)
  x1 3rd part of verse                    x1 Pre-chorus
e|---------------------------------------)--------------)
B|----0------------0-------------0-------)--------------)
G|--------0-------------0-------------0--)-7-7-77777777-)
D|---------------------------------------)-7-7-77777777-)
A|-3------------5-------------7----------)-9-9-99999999-)
E|---------------------------------------)--------------)
  x1 Chorus/Ending 
e|------------------------------------------------------------------------|
B|------------------------------------------------------------------------|
G|-9-9--9999--9-9-9999--7-7-7777--7-7-7777--5-5-5555--7-7-7777--9-9-9999--|
D|-9-9--9999--9-9-9999--7-7-7777--7-7-7777--5-5-5555--7-7-7777--9-9-9999--|
A|-7-7--0707--6-6-0606--5-5-0505--4-4-0404--3-3-0303--5-5-0505--7-7-0707--|
E|------------------------------------------------------------------------|
  x1 
e|----------------------------|
B|----------------------------|
G|-9-9-9-99999999------------|
D|-9-9-9-99999999------------|
A|-0-7-0-77777777------------|
E|----------------------------|
  x1 Chorus 2nd Time
e|-------------------------------------|
B|-x2---x2---x2---x2---x2---x2---x2----|
G|-9999-9999-7777-7777-5555-7777-9999--|
D|-9999-9999-7777-7777-5555-7777-9999--|
A|-7070-6060-5050-4040-3030-5050-7070--|
E|-------------------------------------|
 x1 
e|-----------------------------|
B|-----------------------------|
G|-9-9-9-99999999-------------|
D|-9-9-9-99999999-------------|
A|-0-7-0-77777777-------------|
E|-----------------------------|
  x2 chorus 3rd time     x2 Let each chord ring
e|----------------------|------------------------)
B|-x2----x2----x2----x2-|------------------------)
G|-9999-9999-7777-7777--|-5-----7------9---------)
D|-9999-9999-7777-7777--|-5-----7------9---------)
A|-7777-6666-5555-4444--|-3-----5------7---------)
E|----------------------|------------------------)

Thats it! I hope u Enjoy this tab. its my fist one. its also the first tab
of this song.
Comments