Chronic Future - Time And Time Again Chords & Tabs

 

Time And Time Again Chords & Tabs

Chronic Future Chords & Tabs

Version: 1 Type: Bass Tab 0 ratings
1 star 2 stars 3 stars 4 stars 5 stars
comments

Time And Time Again Bass Tab

Band - Chronic Future
Song - Time And Time Again

Tuning: Standard
Key:
\ - slide down
~ - let ring
R - rest


G|-----------------|-----------------|-----------------|-----------------|
D|-----------------|-----------------|-----------------|-----------------|
A|-6~--------------|-5~--------------|-4~--------------|-3~--------------|
E|-----------------|-----------------|-----------------|-----------------|

G|---------3-------|---------2-------|-----------------|-5---3---1-------|
D|-1-----1-----1---|-0-----0-----0---|---------6-------|-----------------|
A|-----------------|-----------------|-4-----4-----4---|-------------4---|
E|-----------------|-----------------|-----------------|-----------------|

G|---------3-------|---------2-------|-----------------|-----------------|
D|-1-----1-----1---|-0-----0-----0---|---------6-------|---------5-------|
A|-----------------|-----------------|-4-----4-----4---|-3-----3-----3---|
E|-----------------|-----------------|-----------------|-----------------|

G|-----------------|-----------------|-----------------|-----------------|
D|-----------------|-----------------|-----------------|-----------------|
A|-2~--------------|-4~--------------|-6~--------------|-6---6--666-666-|
E|-----------------|-----------------|-----------------|-----------------|

G|-----------------|-----------------|-----------------|-----------------|
D|-----------------|-----------------|-----------------|-----------------|
A|-6---6---6-6-6-6-|-5---5---5-5-5-5-|-4---4---4-4-4-4-|-3---3---3-3-3-3-|
E|-----------------|-----------------|-----------------|-----------------|

G|-----------------|-----------------|-----------------|-----------------|
D|-----------------|-----------------|-----------------|-----------------|
A|-2---2---2-2-2-2-|-4---4---4-4-4-4-|-6---6---6-6-6-6-|-6---6--666-666-|
E|-----------------|-----------------|-----------------|-----------------|

G|---------3-------|---------2-------|-----------------|-5---3---1-------|
D|-1-----1-----1---|-0-----0-----0---|---------6-------|-----------------|
A|-----------------|-----------------|-4-----4-----4---|-------------4---|
E|-----------------|-----------------|-----------------|-----------------|

G|---------3-------|---------2-------|-----------------|-5---3---1-------|
D|-1-----1-----1---|-0-----0-----0---|---------6-------|-----------------|
A|-----------------|-----------------|-4-----4-----4---|-------------4---|
E|-----------------|-----------------|-----------------|-----------------|

G|---------3-------|---------2-------|-----------------|-----------------|
D|-1-----1-----1---|-0-----0-----0---|---------6-------|---------5-------|
A|-----------------|-----------------|-4-----4-----4---|-3-----3-----3---|
E|-----------------|-----------------|-----------------|-----------------|

G|-----------------|-----------------|-----------------|-----------------|
D|-----------------|-----------------|-----------------|-----------------|
A|-2~--------------|-4~--------------|-6~--------------|-6---6--666-666-|
E|-----------------|-----------------|-----------------|-----------------|

G|-----------------|-----------------|-----------------|-----------------|
D|-----------------|-----------------|-----------------|-----------------|
A|-6---6---6-6-6-6-|-5---5---5-5-5-5-|-4---4---4-4-4-4-|-3---3---3-3-3-3-|
E|-----------------|-----------------|-----------------|-----------------|

G|-----------------|-----------------|-----------------|-----------------|
D|-----------------|-----------------|-----------------|-----------------|
A|-2---2---2-2-2-2-|-4---4---4-4-4-4-|-6---6---6-6-6-6-|-6---6--666-666-|
E|-----------------|-----------------|-----------------|-----------------|
[ Tab from: http://www.guitartabs.cc/tabs/c/chronic_future/time_and_time_again_btab.html ]
G|-----------------|-----------------|-----------------|-----------------|
D|-----------------|-----------------|-----------------|-----------------|
A|-6-6-6-6-6-6-6-6-|-5-5-5-5-5-5-5-5-|-4-4-4-4-4-4-4-4-|-3-3-3-3-3-3-3-3-|
E|-----------------|-----------------|-----------------|-----------------|

G|-----------------|-----------------|-----------------|-----------------|
D|-----------------|-----------------|-----------------|-----------------|
A|-2-2-2-2-2-2-2-2-|-4-4-4-4-4-4-4-4-|-6-6-6-6-6-6-6-6-|-6-6-66-6-6-6-6-|
E|-----------------|-----------------|-----------------|-----------------|

G|-----------------|-----------------|-----------------|-----------------|
D|-----------------|-----------------|-----------------|-----------------|
A|-6---6---6---6---|-5---5---5---5---|-4---4---4---4---|-3---3---3---3---| x2
E|-----------------|-----------------|-----------------|-----------------|

G|-----------------|-----------------|-----------------|-----------------|
D|-----------------|-----------------|-----------------|-----------------|
A|-2~--------------|-4~--------------|-6~--------------|----------------|
E|-----------------|-----------------|-----------------|-----------------|

G|-----------------|-----------------|-----------------|-----------------|
D|-----------------|-----------------|-----------------|-----------------|
A|-6---R-----------|-5---R-----------|-4---R-----------|-3---R-----------|
E|-----------------|-----------------|-----------------|-----------------|

G|-----------------|-----------------|-----------------|-----------------|
D|---------8\------|---------7\------|---------6\------|---------5\------|
A|-6---R-----------|-5---R-----------|-4---R-----------|-3---R-----------|
E|-----------------|-----------------|-----------------|-----------------|

G|-----------------|-----------------|-----------------|-----------------|
D|-----------------|-----------------|-----------------|-----------------|
A|-2~--------------|-4~--------------|-6~--------------|-6---6--666-666-|
E|-----------------|-----------------|-----------------|-----------------|

G|-----------------|-----------------|-----------------|-----------------|
D|-----------------|-----------------|-----------------|-----------------|
A|-6---6---6-6-6-6-|-5---5---5-5-5-5-|-4---4---4-4-4-4-|-3---3---3-3-3-3-|
E|-----------------|-----------------|-----------------|-----------------|

G|-----------------|-----------------|-----------------|-----------------|
D|-----------------|-----------------|-----------------|-----------------|
A|-2---2---2-2-2-2-|-4---4---4-4-4-4-|-6---6---6-6-6-6-|-6---6--666-666-|
E|-----------------|-----------------|-----------------|-----------------|

G|-----------------|-----------------|-----------------|-----------------|
D|-----------------|-----------------|-----------------|-----------------|
A|-6-6-6-6-6-6-6-6-|-5-5-5-5-5-5-5-5-|-4-4-4-4-4-4-4-4-|-3-3-3-3-3-3-3-3-|
E|-----------------|-----------------|-----------------|-----------------|

G|-----------------|-----------------|-----------------|-----------------|
D|-----------------|-----------------|-----------------|-----------------|
A|-2-2-2-2-2-2-2-2-|-4-4-4-4-4-4-4-4-|-6-6-6-6-6-6-6-6-|-6-6-66-6-6-6-6-|
E|-----------------|-----------------|-----------------|-----------------|

G|-----------------|-----------------|-----------------|-----------------|
D|-----------------|-----------------|-----------------|-----------------|
A|-6---6---6---6---|-5---5---5---5---|-4---4---4---4---|-3---3---3---3---|
E|-----------------|-----------------|-----------------|-----------------|
                                      						    
G|-----------------|-----------------|-----------------|-----------------|
D|-----------------|-----------------|-----------------|-----------------|
A|-2~--------------|-4~--------------|-6~--------------|-----------------|
E|-----------------|-----------------|-----------------|-----------------|
Comments