Chronic Future - Shellshocked Chords & Tabs

 

Shellshocked Chords & Tabs

Chronic Future Chords & Tabs

Version: 1 Type: Tab 0 ratings
1 star 2 stars 3 stars 4 stars 5 stars
comments

Shellshocked Tab

I love this song and and I think Chronic Future is the best band there is today so i
tabbed up an easier version of the song, mainly the intro and the verse. I also think
this song is in standard tuning. This is my first real tab so give me a break on this
one, if there are any mistakes.


Intro x1
(clean)

e|-------------------------------------------------------------------------|
B|-------------------------------------------------------------------------|
G|-------------------------------------------------------------------------|
D|---------0---------------0---------------0---------------0---------------|
A|-----4-----4---4-----4-----4---4-----4-----4---4-----4-----4---4---------|
E|-5-5---5-----5---5-5---5-----5---2-2---2-----2---0-0---0-----0-----------|

Verse x2
(clean)

e|-------------------------------------------------------------------------|
B|-------------------------------------------------------------------------|
G|-------------------------------------------------------------------------|
D|---------0---------------0---------------0---------------0---------------|
A|-----4-----4---4-----4-----4---4-----4-----4---4-----4-----4---4---------|
E|-5-5---5-----5---5-5---5-----5---2-2---2-----2---0-0---0-----0-----------|

Prechorus x2
(clean)

e|-------------------------------------------------------------------------|
B|-------------------------------------------------------------------------|
G|-------------------------------------------------------------------------|
D|-------------------------------------------------------------------------|
A|-12-12-12-12-11-11-11-11-9-9-9-9-7-7-7-7---------------------------------|
E|-------------------------------------------------------------------------|

Prechorus cont. x1
(clean)

e|-------------------------------------------------------------------------|
B|-------------------------------------------------------------------------|
G|-------------------------------------------------------------------------|
D|---------------------------------------------11~-------------------------|
A|-14-14-14-14-12-12-12-12-11-11-11-11-9-9-9-9-11~-------------------------|
E|----------------------------------------------9~-------------------------|

Verse x2
(clean)

e|-------------------------------------------------------------------------|
B|-------------------------------------------------------------------------|
G|-------------------------------------------------------------------------|
D|---------0---------------0---------------0---------------0---------------|
A|-----4-----4---4-----4-----4---4-----4-----4---4-----4-----4---4---------|
E|-5-5---5-----5---5-5---5-----5---2-2---2-----2---0-0---0-----0-----------|

Prechorus x2
(clean)

e|-------------------------------------------------------------------------|
B|-------------------------------------------------------------------------|
G|-------------------------------------------------------------------------|
D|-------------------------------------------------------------------------|
A|-12-12-12-12-11-11-11-11-9-9-9-9-7-7-7-7---------------------------------|
E|-------------------------------------------------------------------------|

Prechorus cont. x1
(clean)                                              dist. here

e|--------------------------------------------------|----------------------|
B|--------------------------------------------------|----------------------|
G|--------------------------------------------------|--11-11---------------|
D|---------------------------------------------11~--|--11-11---------------|
A|-14-14-14-14-12-12-12-12-11-11-11-11-9-9-9-9-11~--|---9--9---------------|
E|----------------------------------------------9~--|----------------------|

Chorus x2
(dist.)

e|-------------------------------------------------------------------------|
B|-------------------------------------------------------------------------|
G|-------------------------------------------------------------------------|
D|-7-7-7-7-7-7-7-7-7-7-7-7-4-4-4-4-4-4-4-4-4-4-4-4-------------------------|
A|-7-7-7-7-7-7-7-7-7-7-7-7-4-4-4-4-4-4-4-4-4-4-4-4-------------------------|
E|-5-5-5-5-5-5-5-5-5-5-5-5-2-2-2-2-2-2-2-2-2-2-2-2-------------------------|

Chorus cont. x2
(dist.)

e|-------------------------------------------------------------------------|
B|-------------------------------------------------------------------------|
G|-------------------------------------------------------------------------|
D|-9-9-9-9-9-9-9-9-9-9-9-9-11-11-11-11-11-11-11-11-11-11-11-11-------------|
A|-9-9-9-9-9-9-9-9-9-9-9-9-11-11-11-11-11-11-11-11-11-11-11-11-------------|
E|-7-7-7-7-7-7-7-7-7-7-7-7--9--9--9--9--9--9--9--9--9--9--9--9-------------|

Bridge x1
(dist.)

e|-------------------------------------------------------------------------|
B|-------------------------------------------------------------------------|
G|-------------------------------------------------------------------------|
D|-7-7-7-7-7-7-7-7-4-4-4-4-4-4-4-4-9-9-9-9-9-9-9-9-11-11-11-11-------------|
A|-7-7-7-7-7-7-7-7-4-4-4-4-4-4-4-4-9-9-9-9-9-9-9-9-11-11-11-11-------------|
E|-5-5-5-5-5-5-5-5-2-2-2-2-2-2-2-2-7-7-7-7-7-7-7-7--9--9--9--9-------------|

Prechorus 2 x1
(dist.)
[ Tab from: http://www.guitartabs.cc/tabs/c/chronic_future/shellshocked_tab.html ]
e|-------------------------------------------------------------------------|
B|-------------------------------------------------------------------------|
G|-------------------------------------------------------------------------|
D|-11-11-11-11-11-11-11-11-------------------------------------------------|
A|-11-11-11-11-11-11-11-11-------------------------------------------------|
E|--9--9--9--9--9--9--9--9-------------------------------------------------|

This part is the same as the chorus, but its not the chorus, so yeah.

Chorus x2
(dist.)

e|-------------------------------------------------------------------------|
B|-------------------------------------------------------------------------|
G|-------------------------------------------------------------------------|
D|-7-7-7-7-7-7-7-7-7-7-7-7-4-4-4-4-4-4-4-4-4-4-4-4-------------------------|
A|-7-7-7-7-7-7-7-7-7-7-7-7-4-4-4-4-4-4-4-4-4-4-4-4-------------------------|
E|-5-5-5-5-5-5-5-5-5-5-5-5-2-2-2-2-2-2-2-2-2-2-2-2-------------------------|

Chorus cont. x2
(dist.)

e|-------------------------------------------------------------------------|
B|-------------------------------------------------------------------------|
G|-------------------------------------------------------------------------|
D|-9-9-9-9-9-9-9-9-9-9-9-9-11-11-11-11-11-11-11-11-11-11-11-11-------------|
A|-9-9-9-9-9-9-9-9-9-9-9-9-11-11-11-11-11-11-11-11-11-11-11-11-------------|
E|-7-7-7-7-7-7-7-7-7-7-7-7--9--9--9--9--9--9--9--9--9--9--9--9-------------|

Verse x2
(clean)

e|-------------------------------------------------------------------------|
B|-------------------------------------------------------------------------|
G|-------------------------------------------------------------------------|
D|---------0---------------0---------------0---------------0---------------|
A|-----4-----4---4-----4-----4---4-----4-----4---4-----4-----4---4---------|
E|-5-5---5-----5---5-5---5-----5---2-2---2-----2---0-0---0-----0-----------|

Prechorus x2
(clean)

e|-------------------------------------------------------------------------|
B|-------------------------------------------------------------------------|
G|-------------------------------------------------------------------------|
D|-------------------------------------------------------------------------|
A|-12-12-12-12-11-11-11-11-9-9-9-9-7-7-7-7---------------------------------|
E|-------------------------------------------------------------------------|

Prechorus cont. x1
(clean)                                              dist. here

e|--------------------------------------------------|----------------------|
B|--------------------------------------------------|----------------------|
G|--------------------------------------------------|--11-11---------------|
D|---------------------------------------------11~--|--11-11---------------|
A|-14-14-14-14-12-12-12-12-11-11-11-11-9-9-9-9-11~--|---9--9---------------|
E|----------------------------------------------9~--|----------------------|

Chorus x4
(dist.)

e|-------------------------------------------------------------------------|
B|-------------------------------------------------------------------------|
G|-------------------------------------------------------------------------|
D|-7-7-7-7-7-7-7-7-7-7-7-7-4-4-4-4-4-4-4-4-4-4-4-4-------------------------|
A|-7-7-7-7-7-7-7-7-7-7-7-7-4-4-4-4-4-4-4-4-4-4-4-4-------------------------|
E|-5-5-5-5-5-5-5-5-5-5-5-5-2-2-2-2-2-2-2-2-2-2-2-2-------------------------|

Chorus cont. x4
(dist.)

e|-------------------------------------------------------------------------|
B|-------------------------------------------------------------------------|
G|-------------------------------------------------------------------------|
D|-9-9-9-9-9-9-9-9-9-9-9-9-11-11-11-11-11-11-11-11-11-11-11-11-------------|
A|-9-9-9-9-9-9-9-9-9-9-9-9-11-11-11-11-11-11-11-11-11-11-11-11-------------|
E|-7-7-7-7-7-7-7-7-7-7-7-7--9--9--9--9--9--9--9--9--9--9--9--9-------------|

Ending x1
(dist.)

e|---------------------|
B|---------------------|
G|---------------------|
D|-7~-4~-x-x-x-x-9~-11-|
A|-7~-4~-x-x-x-x-9~-11-|
E|-5~-2~-x-x-x-x-7~--9-|


Lyrics

                                                         Intro x1

lies won't save you from the bomb that you just dropped  Verse x2
I'm standing shellshocked but I'm still here

and this to you is what I'm saying                       Prechorus x2
all that's false will fade away                          Prechorus cont. x1

you run away from what you know will surely come         Verse x2
I will remember everything that you have done

and this to you is what I'm saying                       Prechorus x2
all that's false will fade away                          Prechorus cont. x1

I'll say it again because                                Chorus x2
who are you, to say to me
that I'm not all right
you don't know what it's like
I'm shellshocked and
ripped apart inside
no I'm not all right
you don't know what it's like

well yeah a change in character is great                 Bridge x1
and if it's what you need to say
it's probably what I need to hear

but never again in that way                              prechorus 2 x1

i don't care what I'm doing                              Chorus x2
that's turning off of me
it's my care for pursuing
our friendship responsibily
that's why I need to reconstruct
what happens subconsciously
so we don't continue to treat
our silence so obnoxiously

lies won't save you from the bomb that you just dropped  Verse x2
I'm standing shellshocked but I'm still here

and this to you is what I'm saying                       Prechorus x2
all that's false will fade away                          Prechorus cont. x1

I'll say it again because                                Chorus x4
who are you, to say to me
that I'm not all right
you don't know what it's like
I'm shellshocked and
ripped apart inside
no I'm not all right
you don't know what it's like

well yeah a change in character is great                 Ending x1
and if it's what you need to say
it's probably what I need to hear
Comments