Chronic Future - Shellschocked Chords & Tabs

 

Shellschocked Chords & Tabs

Chronic Future Chords & Tabs

Version: 1 Type: Tab 0 ratings
1 star 2 stars 3 stars 4 stars 5 stars
comments

Shellschocked Tab

   
Band - Chronic Future
Song - Shellschocked

Verse: (clean)
eb|-------------------------------------------------------------------------|
Bb|-------------------------------------------------------------------------|
Gb|-------------------------------------------------------------------------|
Db|-------------------------------------------------------------------------|  x3
Ab|----4---5-4---5----4---5-4---4----4---5-4---5----4---5-4---4-------------|
Eb|-55---5-----5---55---5-----5---22---2-----2---00---0-----0---------------|
                                                                              
eb|-------------------------------------------------------------------------|
Bb|-------------------------------------------------------------------------|
Gb|-------------------------------------------------------------------------|
Db|-------------------------------------------------------------------------|
Ab|-12-12-12-12-11-11-11-11-9999-7777-12-12-12-12-11-11-11-11-9999-7777-----|
Eb|-------------------------------------------------------------------------|  

eb|-------------------------------------------------------------------------|
Bb|-------------------------------------------------------------------------|
Gb|-------------------------------------------------------------------------|
Db|------------------------------------------12~----------------------------|
Ab|-14-14-14-14-12-12-12-12-11-11-11-11-9999--------------------------------|
Eb|-------------------------------------------------------------------------|
                                                                              
eb|-------------------------------------------------------------------------|
Bb|-------------------------------------------------------------------------|
Gb|-------------------------------------------------------------------------|
Db|-------------------------------------------------------------------------|  x2
Ab|----4---5-4---5----4---5-4---4----4---5-4---5----4---5-4---4-------------|
Eb|-55---5-----5---55---5-----5---22---2-----2---00---0-----0---------------|


eb|-------------------------------------------------------------------------|
Bb|-------------------------------------------------------------------------|
Gb|-------------------------------------------------------------------------|
Db|-------------------------------------------------------------------------|
Ab|-12-12-12-12-11-11-11-11-9999-7777-12-12-12-12-11-11-11-11-9999-7777-----|
Eb|-------------------------------------------------------------------------|  

eb|-------------------------------------------------------------------------|
Bb|-------------------------------------------------------------------------|
Gb|-------------------------------------------------------------------------|
Db|------------------------------------------12~----------------------------|
Ab|-14-14-14-14-12-12-12-12-11-11-11-11-9999--------------------------------|
Eb|-------------------------------------------------------------------------|
[ Tab from: http://www.guitartabs.cc/tabs/c/chronic_future/shellschocked_tab.html ]
Chorus: (dist.)
eb|-------------------------------------------------------------------------|
Bb|-------------------------------------------------------------------------|
Gb|-----------------------------------4444444444444444-7777777777777777-----|
Db|-7777777777777777-4444444444444444-4444444444444444-7777777777777777-----|  x2
Ab|-7777777777777777-4444444444444444-2222222222222222-5555555555555555-----|
Eb|-5555555555555555-2222222222222222---------------------------------------|
                                                                              

Verse: (dist.)
eb|-------------------------------------------------------------------------|
Bb|-------------------------------------------------------------------------|
Gb|-------------------------------------4-4-4444-4-4-4444-7-7-7777-7-7-7777-|
Db|-7-7-7777-7-7-7777-4-4-4444-4-4-4444-4-4-4444-4-4-4444-7-7-7777-7-7-7777-|
Ab|-7-7-7777-7-7-7777-4-4-4444-4-4-4444-2-2-2222-2-2-2222-5-5-5555-5-5-5555-|
Eb|-5-5-5555-5-5-5555-2-2-2222-2-2-2222-------------------------------------|
                                                                              
Chorus: (dist.)
eb|-------------------------------------------------------------------------|
Bb|-------------------------------------------------------------------------|
Gb|-----------------------------------4444444444444444-7777777777777777-----|
Db|-7777777777777777-4444444444444444-4444444444444444-7777777777777777-----|  x2
Ab|-7777777777777777-4444444444444444-2222222222222222-5555555555555555-----|
Eb|-5555555555555555-2222222222222222---------------------------------------|

Verse:
eb|-------------------------------------------------------------------------|
Bb|-------------------------------------------------------------------------|
Gb|-------------------------------------------------------------------------|
Db|-------------------------------------------------------------------------|  x2
Ab|----4---5-4---5----4---5-4---4----4---5-4---5----4---5-4---4-------------|
Eb|-55---5-----5---55---5-----5---22---2-----2---00---0-----0---------------|


eb|-------------------------------------------------------------------------|
Bb|-------------------------------------------------------------------------|
Gb|-------------------------------------------------------------------------|
Db|-------------------------------------------------------------------------|
Ab|-12-12-12-12-11-11-11-11-9999-7777-12-12-12-12-11-11-11-11-9999-7777-----|
Eb|-------------------------------------------------------------------------|  

eb|-------------------------------------------------------------------------|
Bb|-------------------------------------------------------------------------|
Gb|-------------------------------------------------------------------------|
Db|------------------------------------------12~----------------------------|
Ab|-14-14-14-14-12-12-12-12-11-11-11-11-9999--------------------------------|
Eb|-------------------------------------------------------------------------|

Chorus: (dist.)
eb|-------------------------------------------------------------------------|
Bb|-------------------------------------------------------------------------|
Gb|-----------------------------------4444444444444444-7777777777777777-----|
Db|-7777777777777777-4444444444444444-4444444444444444-7777777777777777-----|  x4
Ab|-7777777777777777-4444444444444444-2222222222222222-5555555555555555-----|
Eb|-5555555555555555-2222222222222222---------------------------------------|

Final chorus: (dist.)
eb|---------------------|
Bb|---------------------|
Gb|-------------4---4-7-|
Db|-7---7-4---4-4---4-7-|
Ab|-7---7-4---4-2---2-5-|
Eb|-5---5-2---2---------|
                                                                              

Outro: (clean)
eb|----------------------------------|
Bb|--2--2----------2--2--------------|
Gb|---2--2-1-2-1-2--2--2-9-----7---9-| repeat
Db|----------------------0-7---0-7-9-| till
Ab|-0--0----------2--2-------8-------| end
Eb|-------2---2----------------------|

End.
Comments