Chronic Future - New York Ny Chords & Tabs

 

New York Ny Chords & Tabs

Chronic Future Chords & Tabs

Version: 1 Type: Tab 0 ratings
1 star 2 stars 3 stars 4 stars 5 stars
comments

New York Ny Tab

   
Band - Chronic Future
Song - New York, NY

Tuning: standard


e|----------------------11--------------------13-18~---18-13-----|
B|-----11-----------------11----------------14--------------14---|
G|-------11-----------11----11----------13--------------------13-|
D|---9-----11-------11--------11------13--13---------------------| x2
A|--9-9------9----11----------------13---------------------------|
E|-7-------------9----------------11-----------------------------|

e|-------------------11----------------13--13-18~-|
B|-----11--------------11----------------14-------|
G|--------11-------------11-----------------------|
D|---9------11----11-------11------13-------------|
A|--9-9---------11---------------13--13-----------|
E|-7-----------9----9----------11-----------------|

       
				 (Guitar 1)
e|-------------------------------------------------------------------------|
B|-------------------------------------------------------------------------|
G|-----3-------------------3-------------3------------------/6-4-3-4-3-----|
D|---4--4---3-3-43--1-4-44---1-1-41----4--4---3-3-43--1-4-44-----------6-4-|
A|-2------4--------------------------2------4------------------------------|
E|-------------------------------------------------------------------------|
            
	                           (Piano)
e|-----13-18~--18-16~----------------------------------------------------18~-|
B|---14-----------------16r14h16~---16-----16~~~-----14-16r14-16-------16----|
G|-13---------------------------------15~-----------------------15~----------|
D|---------------------------------------------------------------------------|
A|---------------------------------------------------------------------------|
E|---------------------------------------------------------------------------|

e|-18~--18-16~--------------------------------18~-|
B|---------------14r16-----16~----16--------16----|
G|--------------------15~-----------15~-----------|
D|------------------------------------------------|
A|------------------------------------------------|
E|------------------------------------------------|


e|----------------------------------|
B|----------------------------------|
G|-4-4-44-6-6-6-66--8-8-88-8-8-8-88-|
D|-4-4-44-6-6-6-66--8-8-88-8-8-8-88-|
A|-2-2-22-4-4-4-44--6-6-66-6-6-6-66-|
E|----------------------------------|

e|----------------------------|
B|----------------------------|
G|-4-4-44-6-6-6-66--8-8-88-8x-|
D|-4-4-44-6-6-6-66--8-8-88-8x-|
A|-2-2-22-4-4-4-44--6-6-66-6x-|
E|----------------------------|

                                 (Guitar 1)
e|-------------------------------------------------------------------------|
B|-------------------------------------------------------------------------|
G|-----3-------------------3-------------3------------------/6-4-3-4-3-----|
D|---4--4---3-3-43--1-4-44---1-1-41----4--4---3-3-43--1-4-44-----------6-4-|
A|-2------4--------------------------2------4------------------------------|
E|-------------------------------------------------------------------------|
 |           
 |	                           (Piano)
e|-----13-18~--18-16~----------------------------------------------------18~-|
B|---14-----------------16r14h16~---16-----16~~~-----14-16r14-16-------16----|
G|-13---------------------------------15~-----------------------15~----------|
D|---------------------------------------------------------------------------|
A|---------------------------------------------------------------------------|
E|---------------------------------------------------------------------------|
[ Tab from: http://www.guitartabs.cc/tabs/c/chronic_future/new_york_ny_tab.html ]
e|-18~--18-16~--------------------------------18~-|
B|---------------14r16-----16~----16--------16----|
G|--------------------15~-----------15~-----------|
D|------------------------------------------------|
A|------------------------------------------------|
E|------------------------------------------------|



e|----------------------------------|
B|----------------------------------|
G|-4-4-44-6-6-6-66--8-8-88-8-8-8-88-|
D|-4-4-44-6-6-6-66--8-8-88-8-8-8-88-|
A|-2-2-22-4-4-4-44--6-6-66-6-6-6-66-|
E|----------------------------------|

e|----------------------------|
B|----------------------------|
G|-4-4-44-6-6-6-66--8-8-88-8x-|
D|-4-4-44-6-6-6-66--8-8-88-8x-|
A|-2-2-22-4-4-4-44--6-6-66-6x-|
E|----------------------------|


e|-----------------------------|
B|-----------------------------|
G|-444444466666666888888888888-|
D|-444444466666666888888888888-| x4
A|-222222244444444666666666666-|
E|-----------------------------|

             (Guitar 1)
e|--------------------------------11-|
B|-11----11----11---11----11----11---|
G|---11----11----11---11----11-------|
D|-----11----11---------11----11-----|
A|-----------------------------------|
E|-----------------------------------|
 |                      (Guitar 2)
e|-----------------------------------------------------|
b|-----------------------------------------------------|
g|-4~~~---6~~~---8~~~---8~~~--444444466666668888888888-|
d|-4~~~---6~~~---8~~~---8~~~--444444466666668888888888-|
a|-2~~~---4~~~---6~~~---6~~~--222222244444446666666666-|
E|-----------------------------------------------------|

e|-11-11-11-11-11-11--9-9-9-9-9-9-9-9--6-6-6-6-6-6-6-6-6-6-6-6-6-6-6-|
B|-------------------------------------------------------------------|
G|-------------------------------------------------------------------|
D|-------------------------------------------------------------------|
A|-------------------------------------------------------------------|
E|-------------------------------------------------------------------|

e|-11-11-11-11-11-11--13-13-13-13-13--/18-18-18-18-18-18-18-18/-|
B|--------------------------------------------------------------|
G|--------------------------------------------------------------|
D|--------------------------------------------------------------|
A|--------------------------------------------------------------|
E|--------------------------------------------------------------|



e|----------------------11--------------------13-18~---18-13-----|
B|-----11-----------------11----------------14--------------14---|
G|-------11-----------11----11----------13--------------------13-|
D|---9-----11-------11--------11------13--13---------------------| x2
A|--9-9------9----11----------------13---------------------------|
E|-7-------------9----------------11-----------------------------|

e|-------------------11----------------13--13-18~-|
B|-----11--------------11----------------14-------|
G|--------11-------------11-----------------------|
D|---9------11----11-------11------13-------------|
A|--9-9---------11---------------13--13-----------|
E|-7-----------9----9----------11-----------------|

            (Guitar 2)
e|----11--------------13--11-----------11--------------13--11--18//-|
B|------11----11--------------11---------11----11-------------------|
G|--------------11------11--11--11---------------11------11--11-----|
D|--11------11------11---------------11------11------11-------------|
A|-9-------9-------9----------------9-------9-------9---------------|
E|------------------------------------------------------------------|


e|-----------------------------|
B|-----------------------------|
G|-444444466666666888888888888-|
D|-444444466666666888888888888-| x4
A|-222222244444444666666666666-|
E|-----------------------------|


e|-----------------------------------|
B|-----------------------------------|
G|-----3-------------------3---------|
D|---4--4---3-3-43--1-4-44---1-1-11x-|
A|-2------4--------------------------|
E|-----------------------------------|
Comments