Chronic Future - Come Correct Chords & Tabs

 

Come Correct Chords & Tabs

Chronic Future Chords & Tabs

Version: 1 Type: Bass Tab 0 ratings
1 star 2 stars 3 stars 4 stars 5 stars
comments

Come Correct Bass Tab

Band - Chronic Future
Song - Come Correct

Tuning: standard

Verse:
G|--------------------------------------|
D|--------------------------------------|
A|-----------------------------------3--|
E|--3--(0)-(0)-2-(0)-(0)-0-(0)-(0)-5----|
[ Tab from: http://www.guitartabs.cc/tabs/c/chronic_future/come_correct_btab.html ]
Chorus:
G|-----------------------------------------------------------------------|
D|-----------------------------------------------------------------------|
A|--------------------------------------------------------------------3--|
E|--3--3-3--3--3-3---2--2-2--2--2-2---0--0-0--0--0-0---5--5-5--5--5-5----|

Bridge:
G|--------------------------------------------------------|
D|--------------------------------------------------------|
A|-----------------------------------------------------3--|
E|--3--3-3b-b-b--2--2-2b-b-b--0--0-0b-b-b--5--5-5b-b-b----|
Comments