Christy Moore - Ride On Chords & Tabs

 

Ride On Chords & Tabs

Christy Moore Chords & Tabs

Version: 2 Type: Tab 0 ratings
1 star 2 stars 3 stars 4 stars 5 stars
comments

Ride On Tab

   
Intro

e|--------------------------------------------------|
B|--------------------------------------------------|
G|-----------------9---12-11-12-9/4-2--0---0-2-4----|
D|------4-2-4-5/9------------------------4-------2--|
A|-2/7----------------------------------------------|
E|--------------------------------------------------|


Em				C
True you ride the finest horse, I've ever seen,
D			     Em
Standing sixteen one or two, with eyes wild and green.
Em			     C
You ride the horse so well, hands light to the touch
D					    Em
I could never go with you no matter how I wanted to.

CHORUS (X2)
Em
Ride On,
C
See you,
D					    Em
I could never go with you no matter how I wanted to.
[ Tab from: http://www.guitartabs.cc/tabs/c/christy_moore/ride_on_tab_ver_2.html ]
e|--------------------------------------------------|
B|--------------------------------------------------|
G|-----------------9---12-11-12-9/4-2--0---0-2-4----|
D|------4-2-4-5/9------------------------4-------2--|
A|-2/7----------------------------------------------|
E|--------------------------------------------------|

When you ride into the night, without a trace behind
Run your claw along my gut, one last time.
I turned to face an empty space. where you used to lie
And look for the spark that lights the night through a teardrop in my eye.

Chorus (X2)

e|--------------------------------------------------|
B|--------------------------------------------------|
G|-----------------9---12-11-12-9/4-2--0---0-2-4----|
D|------4-2-4-5/9------------------------4-------2--|
A|-2/7----------------------------------------------|
E|--------------------------------------------------|  (play to fade)
Comments