Christmas Carols - We Three Kings Chords & Tabs

 

We Three Kings Chords & Tabs

Christmas Carols Chords & Tabs

Version: 1 Type: Tab 0 ratings
1 star 2 stars 3 stars 4 stars 5 stars
comments

We Three Kings Tab

|--------------------------|
|--------------------------|
|--------------------------|
|--5--4--2--------0--------|
|-----------2--4-----4--2--|
|--------------------------|

|--------------------------|
|--------------------------|
|--------------------------|
|--5--4--2--------0--------|
|-----------2--4-----4--2--|
|--------------------------|
[ Tab from: http://www.guitartabs.cc/tabs/c/christmas_carols/we_three_kings_tab.html ]
|--------------------------|-----------------------|
|--------------------------|-----------------------|
|--------------------------|-----------------------|
|--0--0--2--4--5--4--2--4--|--0--0--0-----0-----0--|
|--------------------------|-----------0-----2-----|
|--------------------------|-----------------------|

|-----------------------------|-----------------------|
|-----------------------------|-----------------------|
|-----------------------------|-----------------------|
|-----2--0--0--0-----0-----0--|--0--0--0-----0-----0--|
|--4--------------0-----2-----|-----------0-----2-----|
|-----------------------------|-----------------------|

|--------------------------|-----------------------|
|--------------------------|-----------------------|
|--------------------------|-----------------------|
|--0--0--2--4--5--4--2--4--|--0--0--0-----0-----0--|
|--------------------------|-----------0-----2-----|
|--------------------------|-----------------------|
Comments