Christmas - Silent Night Easy Chords & Tabs

 

Silent Night Easy Chords & Tabs

Christmas Chords & Tabs

Version: 1 Type: Tab 15 ratings
1 star 2 stars 3 stars 4 stars 5 stars
comments

Silent Night Easy Tab

Silen night its easy and sounds good and its right just know the melody and youll be fine it goes right witht the words
amanda    email me if you want: ajax516@aol.com


-----------------------------------------------------------------------------------------------------------------------------------------------------------------------
--------------------------------------------------------------------------------------------------3-------------3-----------0---------------1-------1----------------
-----0---------2-----0------------------------------0--------2------0-----------------------------------------------------------------------------------0-------
-----------------------------------2------------------------------------------------2--------------------------------------------------------------------------------
-----------------------------------------------------------------------------------------------------------------------------------------------------------------------
-----------------------------------------------------------------------------------------------------------------------------------------------------------------------
[ Tab from: http://www.guitartabs.cc/tabs/c/christmas/silent_night_easy_tab.html ]
-------------------------------------------------------------------------------------------------------------------------------------------------------------------
------------------------1-------------0---------------------------------------------------------------------------1---------0---------------
-2---------2---------------------------------2----------0----------2--------0---------------2------2----------------------------2-------------------------------
----------------------------------------------------------------------------------------2----------------------------------------------------------------
----------------------------------------------------------------------------------------------------------------------------------------------------------------------
---------------------------------------------------------------------------------------------------------------------------------------------------------------------

--------------------------------------------------------------1--------------------------------------------------0------------------------------------------------------
---------------------------------------3----------3-----------------------3------------0---------1-------------------------------------------------------------------------
---0------2-----0-------------------------------------------------------------------------------------------------------------------------------------------------------
-------------------------2---------------------------------------------------------------------------------------------------------------------------------------------
----------------------------------------------------------------------------------------------------------------------------------------------------------------------
---------------------------------------------------------------------------------------------------------------------------------------------------------------------

----------------------------------------------------------------------------------------------------------------------------------------------------------------------
----1------------------------------------------------------------------------------------------------------------------------------------------------------------------
------------------0---------------------0------------------------------------------------------------------------------------------------------------------------------
------------------------------2-------------------3------------0---------------------------------------------------------------------------------------------------------
-------------------------------------------------------------------------------3---------------------------------------------------------------------------------------
---------------------------------------------------------------------------------------------------------------------------------------------------------------------
Comments