Christine Concepcion - Ben Chords & Tabs

 

Ben Chords & Tabs

Christine Concepcion Chords & Tabs

Version: 1 Type: Tab 0 ratings
1 star 2 stars 3 stars 4 stars 5 stars
comments

Ben Tab

---------------------------------------------------------------------
                     "Ben" - Christine Concepcion
                 
                 http://christineconcepcion.cjb.net/
---------------------------------------------------------------------

Tabbed by: Justin RiRaY   Christine ROcks!!
Email: Pakman7JR@hotmail.com           AIM: BeatPwner

     Christine you frickin rock! Sexiness to the max. Anyways, 
I dedicate this tab to you... see how good your song is. I've 
dedicated a million things to you because of it! Keep it up =D

Tuning: EADGBe (transcribed from piano)


          *** GUITAR 1 ***

     WHOLE SONG

e|-------------------------------------------------------------------|
B|-------------------------------------------------------------------|
G|-----10~-------9~--------7~---------5~-----------------------------|
D|-----10~-------10~-------7~---------5~-----------------------------|
A|-----8~--------7~--------5~---------3~-----------------------------|
E|-------------------------------------------------------------------|



          *** GUITAR 2 ***

     INTRO

e|-----------------5-8-------------------------------5-6-5-----------|
B|-----------6-6-8-----8-----------------------6-6-8-----------------|
G|-------------------------------------------------------------------|
D|-------------------------------------------------------------------|
A|-------------------------------------------------------------------|
E|-------------------------------------------------------------------|
[ Tab from: http://www.guitartabs.cc/tabs/c/christine_concepcion/ben_tab.html ]
e|-------------------------------------------------------------------|
B|---8-6---5-6-5-------------------5--6--8--6------------------------|
G|-------------------------------------------------------------------|
D|-------------------------------------------------------------------|
A|-------------------------------------------------------------------|
E|-------------------------------------------------------------------|


     VERSE

e|---5-55-5-55-55-555---5-555-55-55-555------------------------------|
B|---6-66-6-66-66-666---8-888-88-88-888------------------------------|
G|---5-55-5-55-55-555---5-555-55-55-555------------------------------|
D|-------------------------------------------------------------------|
A|-------------------------------------------------------------------|
E|-------------------------------------------------------------------|

e|---5-55-5-55-55-555---5-555-- ( ---5-8--- ) -----------------------|
B|---6-66-6-66-66-666---8-888-- ( -6-----6- ) -----------------------|
G|---5-55-5-55-55-555---5-555----------------------------------------|
D|-------------------------------------------------------------------|
A|-------------------------------------------------------------------|
E|-------------------------------------------------------------------|


     CHORUS 

e|----------55------------------------55-----------------------------|
B|----6---6-------6---6-8-8-----6---6-------6---6-8-6----------------|
G|--5---5-------5---5---------5---5-------5---5----------------------|
D|-------------------------------------------------------------------|
A|-------------------------------------------------------------------|
E|-------------------------------------------------------------------|

e|----------55------------------------55-----------------------------|
B|----6---6-------6---6-8-8-----6---6-------6---6-8-6----------------|
G|--5---5-------5---5---------5---5-------5---5----------------------|
D|-------------------------------------------------------------------|
A|-------------------------------------------------------------------|
E|-------------------------------------------------------------------|


| ~  vibrato

=====================================================================
Comments