Christina Vidal - Take Me Away Chords & Tabs

 

Take Me Away Chords & Tabs

Christina Vidal Chords & Tabs

Version: 6 Type: Tab 0 ratings
1 star 2 stars 3 stars 4 stars 5 stars
comments

Take Me Away Tab

-------------------------------------------------------------------------------
			  Take Me Away - Pink Slip
-------------------------------------------------------------------------------
Tabbed by:Eduardo lan
Email:eduardolan_12@hotmail.com

intro
e|--5-5-x-x-x-x-x-5-5-x-x-x-x-x-x-5-5-x-x-5-5-x-x-5-5-5-5-5-5----------------|
B|--5-5-x-x-x-x-x-5-5-x-x-x-x-x-x-5-5-x-x-5-5-x-x-5-5-5-5-5-5----------------|
G|--6-6-x-x-x-x-x-6-6-x-x-x-x-x-x-6-6-x-x-6-6-x-x-6-6-6-6-6-6----------------|
D|--7-7-x-x-x-x-x-7-7-x-x-x-x-x-x-7-7-x-x-7-7-x-x-7-7-7-7-7-7----------------|
A|--7-7-----------7-7-------------7-7-----7-7-----7-7-7-7-7-7----------------|
E|--5-5-----------5-5-------------5-5-----5-5-----5-5-5-5-5-5----------------|

verse
e|--------------x-x-x---------------------------x-x-x------------------------|
B|--------------x-x-x---------------------------x-x-x------------------------|
G|--------------x-x-x---------------------------x-x-x------------------------|
D|--------------x-x-x---------------------------x-x-x------------------------|
A|------0-2-3-3-------3-2-0-1-1-0-------0-2-3-3-------3-2-0-1-1-0------------|
E|--0-0---------------------------3-0-0---------------------------3----------|

e|------------|----------------|
B|------------|----------------|
G|------------|----------------|
D|------------|----------------|
A|------0-2-3-|-3-2-0-1-1-0----|
E|--0-0-------|-------------3--|

Pre-Chorus
e|--5-5-x-x-x-x-x-5-5-x-x-x-x-x-x-5-5-x-x-5-5-x-x-5-5-5-5-5-5----------------|
B|--5-5-x-x-x-x-x-5-5-x-x-x-x-x-x-5-5-x-x-5-5-x-x-5-5-5-5-5-5----------------|
G|--6-6-x-x-x-x-x-6-6-x-x-x-x-x-x-6-6-x-x-6-6-x-x-6-6-6-6-6-6----------------|
D|--7-7-x-x-x-x-x-7-7-x-x-x-x-x-x-7-7-x-x-7-7-x-x-7-7-7-7-7-7----------------|
A|--7-7-----------7-7-------------7-7-----7-7-----7-7-7-7-7-7----------------|
E|--5-5-----------5-5-------------5-5-----5-5-----5-5-5-5-5-5----------------|
[ Tab from: http://www.guitartabs.cc/tabs/c/christina_vidal/take_me_away_tab_ver_6.html ]
Chorus
e|----------------------------------------------------|
B|----------------------------------------------------|
G|--8-8-8-8-8-8-7-7-7-7-7-7-5-5-5-5-5-5-3-3-3-3-3-3---|
D|--8-8-8-8-8-8-7-7-7-7-7-7-5-5-5-5-5-5-3-3-3-3-3-3---|
A|--6-6-6-6-6-6-5-5-5-5-5-5-3-3-3-3-3-3-1-1-1-1-1-1---|
E|----------------------------------------------------|

e|--------------------------x-x-x-x-x-x-x-x-x--x--x--x--------------x-x-x-x-x-x--x--x--x--x--x--x--|
B|--------------------------7-7-7-8-8-8-9-9-9-10-10-10--------------7-7-7-7-7-7-10-10-10-10-10-10--|
G|--8-8-8-8-8-8-7-7-7-7-7-7-6-6-6-7-7-7-8-8-8--9--9--9--8-8-8-8-8-8-6-6-6-6-6-6--9--9--9--9--9--9--|
D|--8-8-8-8-8-8-7-7-7-7-7-7-4-4-4-5-5-5-6-6-6--7--7--7--8-8-8-8-8-8-4-4-4-4-4-4--7--7--7--7--7--7--|
A|--6-6-6-6-6-6-5-5-5-5-5-5-----------------------------6-6-6-6-6-6--------------------------------|
E|-------------------------------------------------------------------------------------------------|

solo
e|------------------------------------^14-14-12-10-9-9-10-9-10-12-^15-15-13-12-10-|
B|--------------------12\14/12----------------------------------------------------|
G|-^12-12-12p11-12-12----------13-^12---------------------------------------------|
D|--------------------------------------------------------------------------------|
A|--------------------------------------------------------------------------------|
E|--------------------------------------------------------------------------------|

e|10-10p12-12-12\13-13\14-14\15-9\10-10-10-9\10-10-10-9\10-10-10-9-8-7-9-7-^10-^12-^14-|
B|-------------------------------------------------------------------------------------|
G|-------------------------------------------------------------------------------------|
D|-------------------------------------------------------------------------------------|
A|-------------------------------------------------------------------------------------|
E|-------------------------------------------------------------------------------------|


| /  slide up
| \  slide down
| p  pull-off
| ^  Bend
| x  Mute note
===============================================================================
Comments