Christina Vidal - Take Me Away Chords & Tabs

 

Take Me Away Chords & Tabs

Christina Vidal Chords & Tabs

Version: 5 Type: Tab 0 ratings
1 star 2 stars 3 stars 4 stars 5 stars
comments

Take Me Away Tab

"Take Me Away" by Christina Vidal: Guitar Solo

I was looking at the other tabs for this solo and neither of them seemed to work
for me, so i made my own. I guess you could consider this a combination of the other
two version, one with timing, and the other with the right frets. This is my first
tab, comments accepted at icedragonfri13@hotmail.com

/ = slide up
p = pull off
b = bend to note
r = release to original note (eg: 4b6r4 = bend 4th fret to 6th and back to 4th)


E|-------|----------------------------------------------------------
B|-------|-------------------------------------11b12-12-12-12p10----
G|-------|-------------------------4b6r4-2--0--------------------12-
D|--X----|-4--4-4-4-4p2-0--4---4-4-4--------------------------------
A|--X\---|----------------------------------------------------------
E|---\---|----------------------------------------------------------

[ Tab from: http://www.guitartabs.cc/tabs/c/christina_vidal/take_me_away_tab_ver_5.html ]
E|-----------------------/14-14-14-14p12-------------------------------
B|---------------------------------------15-14--14-14-14-14p12---------
G|-11--11-11-11p9----------------------------------------------14------
D|----------------12-11------------------------------------------------
A|---------------------------------------------------------------------
E|---------------------------------------------------------------------


E|------13b14--12-----------/12-12-12-12-13-13-13----------------------------
B|-/14------------15-12-15-------------------------------------14------------
G|----------------------------------------------------13-13-13-13-13-13-11-9-
D|---------------------------------------------------------------------------
A|--------------------------------------------------------------------------
E|---------------------------------------------------------------------------

E|----------------------------13----------14---
B|--------------------14-----------------------
G|-11-13-11-9------9---------------------------
D|---------------------------------------------
A|---------------------------------------------
E|---------------------------------------------
Comments