Christina Vidal - Take Me Away Chords & Tabs

 

Take Me Away Chords & Tabs

Christina Vidal Chords & Tabs

Version: 4 Type: Tab 0 ratings
1 star 2 stars 3 stars 4 stars 5 stars
comments

Take Me Away Tab

TAKE ME AWAY - CHRISTINA VIDAL
SOLO from the movie FREAKY FRIDAY
TAB BY PEPE MARCOS SCHWAYCER
(all my own work)
pepem1@prodigy.net.mx



E----------------------------------------------------------------
B------7------------------7---------3----------------------------
G------9b11--11--11r9-7---9b11------5b7r-3-----------------------
D-------------------------------------------5--------------------
A----------------------------------------------------------------
E----------------------------------------------------------------


E----------------------------------------------------------------
B------12-----12------------7-------------------------7/11-------
G------14b16--16r14--11-----9b11--11--11--11--11r9---------------
D----------------------------------------------------------------
A----------------------------------------------------------------
E----------------------------------------------------------------


E-----14--14--14--14/12------------------------------------------
B-----15--15--15--15------15-14--14--14--14--14/12---------------
G----------------------------14--14--14--14--14-----14--11/16----
D----------------------------------------------------------------
A----------------------------------------------------------------
E----------------------------------------------------------------

[ Tab from: http://www.guitartabs.cc/tabs/c/christina_vidal/take_me_away_tab_ver_4.html ]
E----------------------------------------------------------------
B-----17b19-?---17--15------15--15--15/17-17-17-17-17-17-17------
G-----------------------16---------------------------------------
D----------------------------------------------------------------
A----------------------------------------------------------------
E----------------------------------------------------------------


E----------------------------------------------------------------
B----17/18-18-18-18-18-18-18------------9--9--------9--9---------
G--------------------------------11b13--13-13--11b9-13-13--------
D----------------------------------------------------------------
A----------------------------------------------------------------
E----------------------------------------------------------------


E-----------------------------------------------------------------
B----------------9--------------------------14-------18-----19----
G----11--10--11--11b13r-10---10-10-11b13----16b18----20b22--21b23-
D-----------------------------------------------------------------
A-----------------------------------------------------------------
E-----------------------------------------------------------------

It sounds to me really like the song, but this is my first tab anyway
i just couldnīt find this solo anywhere that i decided to tab it myself
so any mistakes, comments, or thanks, are kindly apreciatted in my email
pepem1@prodigy.net.mx
Comments