Christina Vidal - Take Me Away Chords & Tabs

 

Take Me Away Chords & Tabs

Christina Vidal Chords & Tabs

Version: 1 Type: Tab 0 ratings
1 star 2 stars 3 stars 4 stars 5 stars
comments

Take Me Away Tab

 __________________________________________________________________________
|                                                                          |
|                             “Take Me Away”                               |
|__________________________________________________________________________|

                     ***Freaky Friday Soundtrack***

                     -Tabbed by ¢orrupted_angel_X-

As performed by “Pink Slip” in the 2003 movie, and Christina Vidal on the
soundtrack.  Note that this is a cover of the Lash song “Take Me Away.”  This
version is pretty badass, and it's a lot better than Lash's.  Also note that this
tab is arranged for one guitar.  If you listen to the song it’s not too difficult
to determine what the other one is playing.

Standard tuning

Intro
|---------------------------------------------------------
|---------------------------------------------------------
|-----x-x-x-x-x-x-----x-x-x-x-x-x-----x-x-----x-x---------
|-4-4-x-x-x-x-x-x-4-4-x-x-x-x-x-x-4-4-x-x-4-4-x-x-4-4-4-4-
|-4-4-x-x-x-x-x-x-4-4-x-x-x-x-x-x-4-4-x-x-4-4-x-x-4-4-4-4-
|-2-2-------------2-2-------------2-2-----2-2-----2-2-2-2-

|---------|
|---------|
|---------|
|-4-4-4-4-|
|-4-4-4-4-|
|-2-2-2-2-|

Main Riff
|---------------------------------|
|---------------------------------|
|-------------x-x-x---------------| x2
|-------------x-x-x---------------|
|-----0-1-2-2-x-x-x-3-2-0-2-2-1-0-|
|-2-2-----------------------------|
[ Tab from: http://www.guitartabs.cc/tabs/c/christina_vidal/take_me_away_tab.html ]
Verse I
|-------------------------------------------------------|
|-------------------------------------------------------|
|-------------------------------------------------------|
|-(Bass riff here)------------(More bass)---------------|
|----------------------0-1-2--------------3-2-0-2-2-1---|
|------------------2-2--------------------------------2-|

Pre-Chorus I: simply repeat the Intro

Chorus
|---------------------------------------------------------
|---------------------------------------------------------
|-7-7-7-7-7-7-7-7-----------------4-4-4-4-4-4-4-4-2-2-2-2-
|-7-7-7-7-7-7-7-7-4-4-4-4-4-4-4-4-4-4-4-4-4-4-4-4-2-2-2-2-
|-5-5-5-5-5-5-5-5-4-4-4-4-4-4-4-4-2-2-2-2-2-2-2-2-0-0-0-0-
|-----------------2-2-2-2-2-2-2-2-------------------------

|---------------------------------------------------------
|---------------------------------------------------------
|-2-2-2-2-7-7-7-7-7-7-7-7-----------------4--2--7--9--6-6-
|-2-2-2-2-7-7-7-7-7-7-7-7-4-4-4-4-4-4-4-4-4--2--7--9--6-6-
|-0-0-0-0-5-5-5-5-5-5-5-5-4-4-4-4-4-4-4-4-2--0--5--7--4-4-
|-------------------------2-2-2-2-2-2-2-2-----------------

|---------------------------------|
|---------------------------------|
|-6-6-6-6-6-6-6-6-6-6-6-6-6-6-6-6-|
|-6-6-6-6-6-6-6-6-6-6-6-6-6-6-6-6-|
|-4-4-4-4-4-4-4-4-4-4-4-4-4-4-4-4-|
|---------------------------------|

After the Chorus, repeat the Main Riff x4.

Verse I
|-----------------------------------------|
|-----------------------------------------|
|-----------------------------------------|
|-(Mostly bass, until here)---------------|
|---------------------------3-2-0-2-2-1---|
|---------------------------------------2-|

Pre-Chorus II
|---------------------------------------------------|
|---------------------------------------------------|
|---------------------------------------------------|
|-4-4------4-4------4-4-x-x-4-4-x-x-4-4-4-4-4-4-4-4-|
|-4-4------4-4------4-4-x-x-4-4-x-x-4-4-4-4-4-4-4-4-|
|-2-2------2-2------2-2-x-x-2-2-x-x-2-2-2-2-2-2-2-2-|

Repeat the entire Chorus.

Solo
The solo in this song is fuckin’ crazy.  I’m still tabbing it.  If I ever finish, I’ll post it.

Finish the song with the Chorus x2, and some feedback
Comments