Christina Perri - A Thousand Years Part 2 Chords & Tabs

 

A Thousand Years Part 2 Chords & Tabs

Christina Perri Chords & Tabs

Version: 1 Type: Tab 0 ratings
1 star 2 stars 3 stars 4 stars 5 stars
comments

A Thousand Years Part 2 Tab

so this isn't the actual studio recording but i was messing around with 
some tunings and this is actually pretty much matching the original. 
I just kinda played around with it for a few days and played it by ear so here ya go.

TUNING: DADEAE

CAPO 1

Intro:

|-------0------------------------------0------------------------|
|-0-------0---5------4--------0-----------0-----5------4--------|
|---0-------0---0------0---------2-----------2----2------2------|
|---------------------------------------------------------------|
|-0---0-----------0------0----4-----4----------------4------4---|
|---------------------------------------------------------------|



|--------0------------------------------------------------------|
|-0---------0---5------4--------4-------------------2-----------|
|---0---------0---0------0----------0----4--5--4-------0--------|
|-0---0-------------0------0------------------------------------|
|---------------------------------------------------------------|
|-------------------------------2------2------------5-------5---|



|-----------------|
|-0---------------|
|----4----0-------|
|-----------------|
|-----------------|
|-----------------|


VERSE:
[ Tab from: http://www.guitartabs.cc/tabs/c/christina_perri/a_thousand_years_part_2_tab.html ]
|-0------0------0-----0----0------------------------------------|
|-0------0------0-----0----0------------------------------------|
|-2------0------5-----4----0------------------------------------|
|-0------2------4-----2----2------------------------------------|
|-0------4------4-----2----0------------------------------------|
|-x------x------4-----2----x------------------------------------|


PRE-CHORUS:


|----0----0-----0----0------------------------------------------|
|----0----0-----0----0------------------------------------------|
|----2----4-----5----4------------------------------------------|
|----4----2-----4----2------------------------------------------|
|----2----2-----4----2------------------------------------------|
|----x----x-----4----2------------------------------------------|


CHORUS:

|--0--0---0---0--0--0--0----------------------------------------|
|--0--0---0---0--0--0--0----------------------------------------|
|--0--0---5---4--0--5--4----------------------------------------|
|--7--7---4---2--0--2--2----------------------------------------|
|--7--7---4---2--7--2--2----------------------------------------|
|--7--6---4---2--0--2--2----------------------------------------|


INTERLUDE:

|------0--------------|
|------0--------------|
|------0--------------|
|------0--------------|
|------7--------------|
|------0--------------|

VERSE 

PRE CHORUS

CHORUS


OUTRO

|--0------0--------0-------|
|--0------0--------0-------|
|--0------5--------0-------|
|--0------4--------0-------|
|--7------4--------7-------|
|--0------4--------0-------|
Comments