Christina Perri - A Thousand Years Chords & Tabs

 

Christina Perri Chords & Tabs

Version: 2 Type: Chords 1 rating
1 star 2 stars 3 stars 4 stars 5 stars
comments

A Thousand Years Chords

   
-------------------------------------------------------------------------------
     A Thousand Years - Christina Perri
-------------------------------------------------------------------------------
Tabbed by:phwaaah
capo: 3rd fret

Standard Tuning

chords used:
    G D Em C Am
e|--3-3-3--3--3--------------------------------------------------------------|
B|--3-3-3--3--3--------------------------------------------------------------|
G|--0-2-0--0--0--------------------------------------------------------------|
D|--0-0-2--2--2--------------------------------------------------------------|
A|--2---2--2--0--------------------------------------------------------------|
E|--3---0--------------------------------------------------------------------|

Intro:G,D,Em,D,C,G,D

C
Heartbeats fast
           Em
Colors and promises

How to be brave
          D              C
How can I love when I'm afraid to fall
                 Em
But watching you stand alone
                         C                 D    Am
All of my doubt suddenly goes away somehow
         Em   D
One step closer

G
I have died everyday waiting for you
C                              D
Darling don't be afraid I have loved you
       C
For a thousand years
                 D
I love you for a thousand more

C
Time stands still
          Em
Beauty in all she is
[ Tab from: http://www.guitartabs.cc/tabs/c/christina_perri/a_thousand_years_crd_ver_2.html ]
I will be brave
           D             C
I will not let anything take away
                   Em
What's standing in front of me

Every breath
      C                D         Am
Every hour has come to this
         Em    D
One step closer


G
I have died everyday waiting for you
C                              D
Darling don't be afraid I have loved you
       C
For a thousand years
                 D
I love you for a thousand more


G
And all along I believed I would find you
Em
Time has brought your heart to me
       D                C
I have loved you for a thousand years
                 D
I love you for a thousand more

G, Em, D, C, D, Am

         Em    D     Am
One step closer
         Em    D
One step closer

G
I have died everyday waiting for you
C                              D
Darling don't be afraid I have loved you
       C
For a thousand years
                 D
I love you for a thousand more


G
And all along I believed I would find you
Em
Time has brought your heart to me
       D                C
I have loved you for a thousand years
                 D
I love you for a thousand more

Outro:C, Em, C, Em, D
end on C

you can watch my video to help with the tab here: http://www.youtube.com/watch?
v=i0LBlI3Wpt4&feature=channel_video_title
Comments