Christina Millan - Until I Get Over You Chords & Tabs

 

Until I Get Over You Chords & Tabs

Christina Millan Chords & Tabs

Version: 2 Type: Tab 0 ratings
1 star 2 stars 3 stars 4 stars 5 stars
comments

Until I Get Over You Tab

this song is so wonderful! hope you guys like it!
song: until i get over you
[ Tab from: http://www.guitartabs.cc/tabs/c/christina_millan/until_i_get_over_you_tab_ver_2.html ]
intro:
e|--7-7-10-10-7h8-7-5----3-3-7-7----------|
B|-------------------------------3-5-3-5--|
G|----------------------------------------|
D|----------------------------------------|
A|----------------------------------------|
E|----------------------------------------|

bridge:
e|--9-9-12-12-9h10-9-7----5-5-9-9------------5-7-9-|
B|-------------------------------5-7-5-7-5-7-------|
G|-------------------------------------------------|
D|-------------------------------------------------|
A|-------------------------------------------------|
E|-------------------------------------------------|

louie_zae@yahoo.com
Comments