Christina Aguilera - Hurt Chords & Tabs

 

Hurt Chords & Tabs

Christina Aguilera Chords & Tabs

Version: 4 Type: Tab 0 ratings
1 star 2 stars 3 stars 4 stars 5 stars
comments

Hurt Tab

   
-----------------------------------------------------------------------
                             HURT  Christina Aguilera
-----------------------------------------------------------------------
Tabbed by: Bob Miller
Email: onefinebob at gmail dot com
Tuning: Standard

This is my acoustic version of Hurt, taken mostly from listening to the piano part and 
the rest from some of the other instruments. The violin solo is also included at the end. 
free to e-mail with comments/suggestions.

INTRO:
e|3---0---3---0---|2-------2-------|3---0---3---0---|5---3---2---3---|
B|--0---0---0---0-|--0-4-----0-4---|--0---0---0---0-|----------------|
G|----------------|------4-------4-|----------------|--0---0---0---0-|
D|2---------------|1---------------|2---------------|----------------|
A|----------------|----------------|----------------|3---------------|
E|----------------|----------------|----------------|----------------|

e|3---0---3---0---|2-------2-------|
B|----------------|----4-------4---|
G|----------------|----------------|
D|--2---2---2---2-|--4---4---4---4-|
A|0---------------|2---------------|
E|----------------|----------------|

VERSE 1 & 2:
e|3---0---3---0---|2-------2-------|3---0---3---0---|5---3---2---3---|
B|--0---0---0---0-|--0-4-----0-4---|--0---0---0---0-|----------------|
G|----------------|------4-------4-|----------------|--0---0---0---0-|
D|2---------------|1---------------|2---------------|----------------|
A|----------------|----------------|----------------|3---------------|
E|----------------|----------------|----------------|----------------|

e|3---0---3---0---|2-------2-------|3---0---5---0---|7---7---5---3---|
B|----------------|----4-------4---|--0---0---0---0-|--0---0-5---5---|
G|----------------|----------------|----------------|----------4---4-|
D|--2---2---2---2-|--4---4---4---4-|2---------------|----------------|
A|0---------------|2---------------|----------------|----------------|
E|----------------|----------------|----------------|----------------|

PRE-CHORUS: 1 & 2
e|3---3---5---5---|3---3---5---3---|5---5---5---5---|7---7---7---7---|
B|1---1---5---5---|2---2---2---2---|7---7---7---7---|7---7---7---7---|
G|0---0---5---5---|2---2---2---2---|7---7---7---7---|8---8---8---8---|
D|----------------|----------------|--7---7---7---7-|--9---9---9---9-|
A|--3---3---3---3-|--4---4---4---4-|----------------|----------------|
E|----------------|----------------|----------------|----------------|

e|3---3---3---3---|5---5---5---5---|5---5---5---5---|7---7---7---7---|
B|1---1---1---1---|2---2---2---2---|7---7---7---7---|4---7---7---7---|
G|0---0---0---0---|2---2---2---2---|7---7---7---7---|4---4---4---4---|
D|----------------|----------------|--7---7---7---7-|--4---4---4---4-|
A|--3---3---3---3-|--4---4---4---4-|5---------------|6---------------|
E|----------------|----------------|----------------|----------------|
[ Tab from: http://www.guitartabs.cc/tabs/c/christina_aguilera/hurt_tab_ver_4.html ]
CHORUS 1 & 2
e|7---7---7---7--7|7---7---7---7--7|7---7---7---7--7|7---7---5---3---|
B|8---8---8---8---|4---4---4---4---|8---8---8---8---|5---5---5---5---|
G|9---9---9---9---|4---4---4---4---|9---9---9---9---|5---5---5---5---|
D|--9---9---9---9-|--4---4---4---4-|--9---9---------|--5---5---5---5-|
A|7---------------|6---------------|7---------------|3---------------|
E|----------------|----------------|----------------|----------------|

e|5---5---5---5---|2---2---2---3---|
B|5---5---5---5---|4---4---4---4---|
G|5---5---5---5---|4---4---4---4---|
D|7-7---7---7---7-|4-4---4---4---4-|
A|7---------------|2---------------|
E|5---------------|2---------------|

BRIDGE:
e|3---3---3---3---|3---3---3---3---|3---3---3---3---|3---3---3---3---|
B|5---5---5---5---|5---5---5---5---|5---5---5---5---|5---5---5---5---|
G|4---4---4---4---|4---4---4---4---|4---4---4---4---|4---4---4---4---|
D|2---2---0---0---|----------------|2---2---0---0---|----------------|
A|----------------|3---3---3-3-3---|----------------|3---3---3-3-3---|
E|----------------|----------------|----------------|----------------|

e|5---5-------5---|4---4-------4---|3---3-------3---|2---------------|
B|5---5-------5---|5---5-------5---|5---5-------5---|4---------------|
G|5---5-------5---|5---5-------5---|5---5-------5---|2---------------|
D|7---7-------7---|6---6-------6---|5---5-------5---|4---------------|
A|7---7-------7---|----------------|3---3-------3---|3---------------|
E|5---5-------5---|4---4-------4---|3---3-------3---|2---------------|

e|2---------------|----------------|
B|4---4---4---4---|----------------|
G|4-4---4---4-----|4---------------|
D|4---------------|----------------|
A|2---------------|----------------|
E|2---------------|----------------|

FINAL CHORUS:
E|7---7---7---7---|7---7---7---7---|7---7---7---7---|7---7---5---3---|
B|8---8---8---8---|7---7---7---7---|8---8---8---8---|5---5---5---5---|
G|9---9---9---9---|8---8---8---8---|9---9---9---9---|5---5---5---5---|
D|9-9---9---9---9-|9-9---9---9---9-|9-9---9---9---9-|5-5---5---5---5-|
A|----------------|----------------|----------------|----------------|
E|----------------|----------------|----------------|----------------|
                                    * (Violin solo begins here)
e|5---5---5---5---|2---2---3---5---|3---3---3---5---|3---3---3---5---|
B|5---5---5---5---|4---4-----------|5---5---5---5---|5---5---5---5---|
G|5---5---5---5---|4---4-----------|5---5---5---5---|5---5---5---5---|
D|--7---7---7---7-|--4---4---4---4-|--5---5---5---5-|--5---5---5---5-|
A|----------------|2---------------|3---------------|3---------------|
E|5---------------|----------------|----------------|----------------|

e|2---2---3---5---|15------17------|19--------------|0---------------|
B|4---4-----------|----17--------17|----------------|0---------------|
G|4---4-----------|--16--16--16----|----------------|x---------------|
D|--4-------------|----------------|----------------|2---------------|
A|2---------------|----------------|----------------|2---------------|
E|----------------|----------------|----------------|0---------------|

VIOLIN SOLO: (Begins at * in the final chorus)
  v . v . v . v .  v . v .    v . v .
e|--------7---8---|------10-8-7--------|7---------------|
B|------8---------|---------------8-10-|----------------|
G|----9-----------|--------------------|----------------|
D|--10------------|--------------------|----------------|
A|----------------|--------------------|----------------|
E|----------------|--------------------|----------------|

| /  slide up
| \  slide down
| h  hammer-on
| p  pull-off
| ~  vibrato
| +  harmonic
| x  Mute note
=======================================================================
Comments