Christina Aguilera - Fighter Chords & Tabs

 

Fighter Chords & Tabs

Christina Aguilera Chords & Tabs

Version: 3 Type: Tab

Fighter Tab

Christina Aguilera
Fighter
Tuning: Standard
Transcribed by Soch Hean

Verse:
|----------------------------------|
|----------------------------------|
|-9-9-9--9-9-12----7-7-7--7-10-9---|
|-9-9-9--9-9-12----7-7-7--7-10-9---|
|-7-7-7--7-7-10----5-5-5--5--8-7---|
|----------------------------------| (x4)

Bridge: (0:40)
|-------------------------------------------------------------|
|-------------------------------------------------------------|
|-2------------------------------------------2------4-5-5-5-5-|
|-2---------5-5-5--5-5-2----5-5-5--5-5-2-----2------4-5-5-5-5-|
|-0--(x16)--5-5-5--5-5-2----5-5-5--5-5-2-----0-(x7)-2-3-3-3-3-|
|-----------3-3-3--3-3-0----3-3-3--3-3-0----------------------|

|---------------------------------------|
|---------------------------------------|
|-7-7-7-7--4-4-4-4-4---5-5-5--5-5-------|
|-7-7-7-7--4-4-4-4-4---5-5-5--5-5--7----|
|-5-5-5-5--2-2-2-2-2---3-3-3--3-3--7----|
|----------------------------------5----|

Chorus:
|-------------------------------------------------------------|
|-------------------------------------------------------------|
|-------------------------------------------------------------|
|-2------4------5------7------9--10------9------7---5---2-----|
|-2-(x4)-4-(x4)-5-(x4)-7-(x3)-9--10-(x4)-9-(x4)-7---5---2-----|
|-0------2------3------5------7---8------7------5---3---0-----| (x2)
[ Tab from: http://www.guitartabs.cc/tabs/c/christina_aguilera/fighter_tab_ver_3.html ]
Mini Guitar Solo: (1:21)
|-----------------------------------------------------|
|-------------------------------8h10p8----------------|
|-----------------------7---7-9--------9~--7-9--------|
|-------------------7h9---9--------------------7--5---|
|-5s7-7-7-7-7-7-7-7-----------------------------------|
|-----------------------------------------------------|

|----------------------------------------|
|-3=s15-15-15-15--15b======17------------|
|----------------------------------12\---|
|----------------------------------------|
|----------------------------------------|
|----------------------------------------|

Verse 2:
|----------------------------------|
|----------------------------------|
|-9-9-9--9-9-12----7-7-7--7-10-9---|
|-9-9-9--9-9-12----7-7-7--7-10-9---|
|-7-7-7--7-7-10----5-5-5--5--8-7---|
|----------------------------------| (x4)

Bridge: (1:52)
|-------------------------------------------------------------|
|-------------------------------------------------------------|
|-2------------------------------------------2------4-5-5-5-5-|
|-2---------5-5-5--5-5-2----5-5-5--5-5-2-----2------4-5-5-5-5-|
|-0--(x16)--5-5-5--5-5-2----5-5-5--5-5-2-----0-(x7)-2-3-3-3-3-|
|-----------3-3-3--3-3-0----3-3-3--3-3-0----------------------|

|---------------------------------------|
|---------------------------------------|
|-7-7-7-7--4-4-4-4-4---5-5-5--5-5-------|
|-7-7-7-7--4-4-4-4-4---5-5-5--5-5--7----|
|-5-5-5-5--2-2-2-2-2---3-3-3--3-3--7----|
|----------------------------------5----|

Chorus:
|-------------------------------------------------------------|
|-------------------------------------------------------------|
|-------------------------------------------------------------|
|-2------4------5------7------9--10------9------7---5---2-----|
|-2-(x4)-4-(x4)-5-(x4)-7-(x3)-9--10-(x4)-9-(x4)-7---5---2-----|
|-0------2------3------5------7---8------7------5---3---0-----| (x2)

[Chorus] All the way through