Christina Aguilera - Fighter Chords & Tabs

 

Fighter Chords & Tabs

Christina Aguilera Chords & Tabs

Version: 2 Type: Tab 0 ratings
1 star 2 stars 3 stars 4 stars 5 stars
comments

Fighter Tab

   
Christina Aguilera - Fighter
Tabbed By: MJ6Music
Email: marquino6@hotmail.com
Tuning: Standard (E A D G B E)

Chords Used:
Em   - 022000    C/G  - 332010    C5 - 
G/D  - xx0003    G    - 320003
D    - xx0232    B7   - x21202
C    - x32010    E5   - 022xxx
Em/B - x22000    G5   - 355xxx
B    - x24442    D5   - x577xx
Am   - x02210    F5   - 133xxx


Intro (Clean Guitar, Play Along With The Piano)

Em, G/D, D, C, Em/B, B, Am, C/G, G, B7  2X


Verse (Guitar W/Heavy Distortion)

   E5         G5    D5          F5 E5
E|---------------|--------------------||
B|---------------|--------------------||
G|---------------|--7--7--7--7--------|| 4X
D|-2-2-2--2-2-5--|--7--7--7--7--3--2--||
A|-2-2-2--2-2-5--|--5--5--5--5--3--2--||
E|-0-0-0--0-0-3--|--------------1--0--||


Pre-Chorus (Guitar W/Heavy Distortion)
   E5               D5          F5 E5
E|---------------|---------------------||
B|---------------|---------------------||
G|---------------|--7--7--7--7---------|| 2X
D|-2--2--2--2--4X|--7--7--7--7--3--2-2X||
A|-2--2--2--2----|--5--5--5--5--3--2---||
E|-0--0--0--0----|--------------1--0---||
[ Tab from: http://www.guitartabs.cc/tabs/c/christina_aguilera/fighter_tab_ver_2.html ]
   E5
E|---------------|--------------------||
B|---------------|--------------------||
G|---------------|--------------------||
D|-2--2--2--2--4X|--7-4X--10-4X--9-5X-||
A|-2--2--2--2----|--7-----10-----9----||
E|-0--0--0--0----|--5-----8------7----||


Chorus (Guitar W/Heavy Distortion)
   E5   F#5  G5   A5   C5    B5    A5 G5 E5
E|------------------------------------------||
B|------------------------------------------||
G|------------------------------------------||
D|-2-4X-4-4X-5-4X-7-4X-10-4X-9-4X--7--5--2--||
A|-2----4----5----7----10----9-----7--5--2--||
E|-0----2----3----5----8-----7-----5--3--0--||


Piano Interlude (Repeat Intro)


Bridge (Guitar W/Heavy Distortion)
   E5   F#5  G5   A5   C5    B5    A5 G5 E5
E|------------------------------------------||
B|------------------------------------------||
G|------------------------------------------||
D|-2-4X-4-4X-5-4X-7-4X-10-4X-9-4X--7--5--2--||
A|-2----4----5----7----10----9-----7--5--2--||
E|-0----2----3----5----8-----7-----5--3--0--||


Repeat Chorus (Guitar W/Heavy Distortion)
   E5   F#5  G5   A5   C5    B5    A5 G5 E5
E|------------------------------------------||
B|------------------------------------------||
G|------------------------------------------||
D|-2-4X-4-4X-5-4X-7-4X-10-4X-9-4X--7--5--2--||
A|-2----4----5----7----10----9-----7--5--2--||
E|-0----2----3----5----8-----7-----5--3--0--||

Fade To Violin Outro
Comments