Christian Bautista - Way You Look At Me Chords & Tabs

 

Way You Look At Me Chords & Tabs

Christian Bautista Chords & Tabs

Version: 1 Type: Tab 0 ratings
1 star 2 stars 3 stars 4 stars 5 stars
comments

Way You Look At Me Tab

   
The way you look at me
Christian Bautista
Transcribed by: Walter Michael De la Cruz - SLU Baguio CIty - 09275823252

Notes: Asteeeg tong song song na 2. This song rockz. Hi to my soulmate Jaissa tiu. This song is 4 u.

Chords used:

       A /C#               D/F#       
  |-----0-----|        |----0-----|     
  |-----2-----|        |----3-----|        
  |-----2-----|        |----2-----|      
  |-----0-----|        |----0-----| 
  |-----4-----|        |----0-----|        
  |-----X-----|        |----2-----|    


*This is one half key higher than the orig. version. The original key is C#. pero mas madali kasi ito.

Intro: D-G
      
E|---0-2-2-2--5-------------------------------------------|
B|-3---------3----2-2---3---3-----------------------------|
G|--------------------0---0-------------------------------|
D|-----0--------------------------------------------------|
A|--------------------------------------------------------|
E|------------------3-------------------------------------|

Verse 1:

 D               D7                  Bm
No one ever saw me like you do

 D               D7                  Bm 
All the things that i could add up to
[ Tab from: http://www.guitartabs.cc/tabs/c/christian_bautista/way_you_look_at_me_tab.html ]
Bm                     A/C#                    G
I never knew just what a smile was worth

               A              Bm
But your eyes say everything
   
    A/C#
without a single word

Chorus:
                      D
'Cause there's something in the

D7                    G 
way you look at me

         D                    D7
It's as if my heart knows
               
                 G
you're the missing piece

                    Bm  
You make me believe that 

                        E
there's nothing in this world i can't be

     G                    D/F#
I never know what you see but

Em                  A 
there's something in the way

          D/F#-G
you look at me

Verse 2:(Do verse chords)
If i could freeze a moment in my mind
Be the second that you touched your lips to mine 
I'd like to stop the clock Make it stand still
Cause baby, this is just the way
I always wanna feel

Repeat chorus

Bridge:

   Bm
I don't know, how, or why

   A                     D   A/C#
I feel different in your eyes

   Bm              A              C
All i know is it happens everytime.



Comments,questions,?? send me a message in friendster at Walterfdelacruz@yahoo.com
Comments