Christian Bautista - Hands To Heaven Chords & Tabs

 

Hands To Heaven Chords & Tabs

Christian Bautista Chords & Tabs

Version: 3 Type: Tab 0 ratings
1 star 2 stars 3 stars 4 stars 5 stars
comments

Hands To Heaven Tab

   
Hands to heaven
Christian Bautista
Tab by: Royce Remulla - Imus, Cavite

I've seen two versions for this song in here but it sounded a little bit off.
I hate learning songs by ear because I feel insecure , cause some people are really good
at it and im not =),
but I did it anyway ;) intro lang! the rest mag chords na lang kayo
I listen to a low quality mp3 of this song  while tabbing it in guitar pro 4.0
This is my first text tab submission sa web.

Chords used:

        D                 GM7                 Em              G
  |-----3-----|        |----3-----|       |----3----|     |----3----|
  |-----2-----|        |----3-----|       |----0----|     |----3----|
  |-----3-----|        |----4-----|       |----0----|     |----0----|
  |-----0-----|        |----4-----|       |----2----|     |----0----|
  |-----------|        |----5-----|       |----2----|     |----2----|
  |-----------|        |----3-----|       |----0----|     |----3----|

Intro:
[ Tab from: http://www.guitartabs.cc/tabs/c/christian_bautista/hands_to_heaven_tab_ver_3.html ]
Track 1
    D                       Dadd11                                          
E|--2--------------0--2--|--2--------------2--3--|--5-----2--3--10---------|
B|--3-----------3--------|--3-----------3--------|-------------------------|
G|--2--------2-----------|--0--------0-----------|-----0----------------7--|
D|--0--------------------|--4--------------------|-------------------------|
A|-----------------------|-----------------------|--7-----------10---------|
E|-----------------------|-----------------------|-------------------------|


                                                                
--5----2--3----10--------|
-------------3-----------|
-----0---------12--------|
--0----------------------|
-------------------------|
-------------------------|

Verse Chords:
D - GM7 - Em - G

Paulit ulit lang mga tsong at tsang. =)

Comments, Violent Reaction, Suggestions, message me lang =) 
Thnx for trying my tab!
ym: quasi_nut@yahoo.com
friendster: r197918@hotmail.com
Comments