Chris Watts - Big Black Monsoon Chords & Tabs

 

Big Black Monsoon Chords & Tabs

Chris Watts Chords & Tabs

Version: 1 Type: Tab 0 ratings
1 star 2 stars 3 stars 4 stars 5 stars
comments

Big Black Monsoon Tab

   
chris watts is a 70's rock/blues guitarist from Bogata Tx.

electric guitar w/flanger      clear     very hevenly sound
Phrase 1
|-15----15----15----15|
|-15----15----15----15|
|-0-----0-----0-----0-|
|-0-----0-----0-----0-|
|-0-----14----15----14|
|-15----0-----------0-|
  G     E     C     E
repeat phrase 1 strumming through singing part
[ Tab from: http://www.guitartabs.cc/tabs/c/chris_watts/big_black_monsoon_tab.html ]
G     E        C    E
I can feel the rain coming
G         E           C     E
Write the words in my mind
G       E      C       E
And now I have started hummin'
  G      E       C     E         G     
I know I will survive

Pre-chorus
|---------3----|
|---------0----|
|---------0----|
|---------0----|
|---------2----|
|-15\3----3----|


the rest is pretty easy to figure out
Comments