Chris Tomlin - Emmanuel Hallowed Manger Ground Chords & Tabs

 

Emmanuel Hallowed Manger Ground Chords & Tabs

Chris Tomlin Chords & Tabs

Version: 1 Type: Bass Tab 0 ratings
1 star 2 stars 3 stars 4 stars 5 stars
comments

Emmanuel Hallowed Manger Ground Bass Tab

Key of C
Bass rests for first verse.

G|10---------------|
D|-----------------|
A|-----------------|
E|-----------------|
  1  2  3  4  5  6 |  


Verse 2
G|-------------|------------|------------|------------|
D|/10----------|------------|------------|10----------|
A|-------------|8-----------|10----------|------------|
E|-------------|------------|------------|------------|
   1 2 3 4 5 6 |1 2 3 4 5 6 |1 2 3 4 5 6 |1 2 3 4 5 6 |
   fear         silent       hundred      He

G|------------|------------|------------|------|------------|
D|2-----------|3-----------|/5----------|/5----|2-----------|
A|------------|------------|------------|------|------------|
E|------------|------------|------------|------|------------|
  1 2 3 4 5 6 |1 2 3 4 5 6 |1 2 3 4 5 6 |1 2 3 |1 2 3 4 5 6 |
  broken       baby's      -joyce        manger ground


Chorus

G|5-----------|------------|------------|------------|
D|------------|5-----------|3----/5-----|3-----------|
A|------------|------------|------------|------------|
E|------------|------------|------------|------------|
  1 2 3 4 5 6 |1 2 3 4 5 6 |1 2 3 4 5 6 |1 2 3 4 5 6 |
 -man-        -el          -man-        -el            

G|------------|------------|------------|------------|
D|3-----3-----|3-----------|/5----------|5-----------|
A|------------|------------|------------|------------|
E|------------|------------|------------|------------|
  1 2 3 4 5 6 |1 2 3 4 5 6 |1 2 3 4 5 6 |1 2 3 4 5 6 |
  God   in-    carnate      here         dwell

G|5-----------|------------|------------|------------|
D|------------|5-----------|3----/5-----|3-----------|
A|------------|------------|------------|------------|
E|------------|------------|------------|------------|
  1 2 3 4 5 6 |1 2 3 4 5 6 |1 2 3 4 5 6 |1 2 3 4 5 6 |
 -man-        -el          -man-        -el

G|------------|------------|------------|------------|
D|3-----------|3-----------|/5----------|------------|
A|------------|------------|------------|3-----------|
E|------------|------------|------------|------------|
  1 2 3 4 5 6 |1 2 3 4 5 6 |1 2 3 4 5 6 |1 2 3 4 5 6 |
  praise       name        -man-        -el

G|------------|------------|------------|
D|------------|------------|------------|
A|0-----------|------------|0-----------|
E|------------|3-----------|------------|
  1 2 3 4 5 6 |1 2 3 4 5 6 |1 2 3 4 5 6 |


Verse 3

G|------------|------------|------------|------------|
D|------------|------------|------------|------------|
A|3-----------|------------|------------|3-----------|
E|------0-----|1-----------|3-----------|------------|
  1 2 3 4 5 6 |1 2 3 4 5 6 |1 2 3 4 5 6 |1 2 3 4 5 6 |
  Son          born         crown        pierce
[ Tab from: http://www.guitartabs.cc/tabs/c/chris_tomlin/emmanuel_hallowed_manger_ground_btab.html ]
G|------------|------------|------------|------------|
D|------------|------------|------------|------------|
A|------------|------------|------------|------------|
E|0---0-0-0-0-|1-1-1-1-1-1-|3-3-3-3-3-3-|3/5-5-5-5-5-|
  1 2 3 4 5 6 |1 2 3 4 5 6 |1 2 3 4 5 6 |1 2 3 4 5 6 |
 -held         offering     exalted      king

G|------------|0-0-0-|------------|------------|
D|0-0-0-0-0-0-|------|------------|------------|
A|------------|------|3-3-3-3-3-3-|3-3-3-3-3---|
E|------------|------|------------|----------3-|
  1 2 3 4 5 6 |1 2 3 |1 2 3 4 5 6 |1 2 3 4 5 6 |
  God          manger ground                   


Chorus

G|------------|------------|------------|------------|
D|------------|------------|------------|------------|
A|3-3-3-3-3-3-|------------|------------|------------|
E|------------|3-3-3-3-3-3-|0-0-0-3-3-3-|1-1-1-1-1-1-|
  1 2 3 4 5 6 |1 2 3 4 5 6 |1 2 3 4 5 6 |1 2 3 4 5 6 |
 -man-        -el          -man-        -el           

G|------------|------------|------------|-------------|
D|------------|------------|------------|-------------|
A|------------|------------|------------|-------------|
E|0-0-0-0-0-0-|1-1-1-1-1-1-|1/3-3-3-3-3-|/3-3-3/3-3-3-|
  1 2 3 4 5 6 |1 2 3 4 5 6 |1 2 3 4 5 6 | 1 2 3 4 5 6 |
  God         -carnate      here         dwell       

G|------------|------------|------------|------------|
D|------------|------------|------------|------------|
A|3-3-3-3-3-3-|------------|------------|------------|
E|------------|3-3-3-3-3-3-|0-0-0-3-3-3-|1-1-1-1-1-1-|
  1 2 3 4 5 6 |1 2 3 4 5 6 |1 2 3 4 5 6 |1 2 3 4 5 6 |
 -man-        -el          -man-        -el

G|------------|------------|------------|-------------|
D|------------|------------|------------|-------------|
A|------------|------------|------------|-------------|
E|0-0-0-0-0-0-|1-1-1-1-1-1-|3-3-3-3-3-3-|/5-5-5-5-5-5-|
  1 2 3 4 5 6 |1 2 3 4 5 6 |1 2 3 4 5 6 | 1 2 3 4 5 6 |
  praise       name        -man-        -u-

G|-------------|------------|------------|-------------|
D|-------------|------------|------------|-------------|
A|-------------|------------|------------|-------------|
E|/5-5-5/5-5-5-|0-0-0-0-0-0-|1-1-1-1-1-1-|/3-3-3-3-3-3-|
   1 2 3 4 5 6 |1 2 3 4 5 6 |1 2 3 4 5 6 | 1 2 3 4 5 6 |
  -el           praise       name         -man-

G|-------------|------------|------------|------------|
D|-------------|------------|------------|------------|
A|-------------|3-3-3-3-3-3-|0-0-0-0-0-0-|3-3-3-3-3-3-|
E|/3-3-3/3-3-3-|------------|------------|------------|
   1 2 3 4 5 6 |1 2 3 4 5 6 |1 2 3 4 5 6 |1 2 3 4 5 6 |
  -u-          -el

G|------------|------------|------------|------------|
D|------------|------------|------------|------------|
A|0-0-0-0-0-0-|3-3-3-3-3-3-|0-0-0-0-0-0-|------------|
E|------------|------------|------------|3-3-3-3-3-3-|
  1 2 3 4 5 6 |1 2 3 4 5 6 |1 2 3 4 5 6 |1 2 3 4 5 6 |


G|------------|------------|
D|------------|------------|
A|------------|3-----------|
E|1-1-1-1-1-1-|------------|
  1 2 3 4 5 6 |1 2 3 4 5 6 |
Comments