Chris Rice - Untitled Hymn Come To Jesus Chords & Tabs

 

Untitled Hymn Come To Jesus Chords & Tabs

Chris Rice Chords & Tabs

Version: 1 Type: Tab 0 ratings
1 star 2 stars 3 stars 4 stars 5 stars
comments

Untitled Hymn Come To Jesus Tab

I love this one. Chris has awesome guitar skills

Intro:
e|-0--1--3-------------------------------------------------|
B|----------1--0-----1------3-----6-----8----10------6-----|
G|-----------------------------0-----7-----9-----10-----7--|
D|----------------0-----0---------0------------------0-----|
A|-------------------0------2-----------7-----8------------|
E|-------------3-------------------------------------------|
[ Tab from: http://www.guitartabs.cc/tabs/c/chris_rice/untitled_hymn_come_to_jesus_tab.html ]
e|-------------3----------------------|
B|-3--------1-----0-------------------|
G|-------0----------------------------|
D|----0-------------------------------|
A|-2----------------------------------|
E|------------------------------------|
Verse:
e|-0----1----3--0-------------------1--1-----5--5-----------------3------|
B|---1----3-------0----1----3------------3--------6---3--------1-----0---|
G|-----------------------------0------2--------5------------0------------|
D|------0----2------0----0----------0--------3-----------0---------------|
A|-3-------------------0----2-------------------------2------------------|
E|----------------3------------------------------------------------------|

Chorus:
e|-3-----------0--------3--3--------3--1--------1------|
B|----------1-----1--------------1-----------1---------|
G|-------0-----------0--------2-----------2------------|
D|----2--------------------3---------------------------|
A|-3---------------------------------------------------|
E|-----------------------------------------------------|

e|--0------------------------0-------------------------|
B|-----------1--0--------0---1-------------------------|
G|--------0-----------0------0-------------------------|
D|-----2-----------0---------2-------------------------|
A|--3------------------------3-------------------------|
E|--------------3--------------------------------------|

That's it. Enjoi.Roberto
Comments