Chris Rea - Auberge Chords & Tabs

 

Auberge Chords & Tabs

Chris Rea Chords & Tabs

Version: 1 Type: Tab 0 ratings
1 star 2 stars 3 stars 4 stars 5 stars
comments

Auberge Tab

-------------------------------------------------------------------------------
			 Auberge - Chris Rea
-------------------------------------------------------------------------------
Tabbed by:me
Email:
main riff
Tuning:

e|---------------------------------------------------------------------------|
B|---------------------------------------------------------------------------|
G|--------5----7----5----7p----5----9------------5----7----5----7p----5------|
D|---7--------------------------------------7-----------------------------7--|
A|---------------------------------------------------------------------------|
E|---------------------------------------------------------------------------|
[ Tab from: http://www.guitartabs.cc/tabs/c/chris_rea/auberge_tab.html ]
e|-------------------------------------------------------------------------|
B|-------------------------------------------------------------------------|
G|--------5----7----5----7p----5----9------------5----7----5----7----9-----|
D|---7--------------------------------------7------------------------------|
A|-------------------------------------------------------------------------|
E|-------------------------------------------------------------------------|

e|---------------------------------------------------------------------------|
B|---------------------------------------------------------------------------|
G|---7p----5-----------------------------------------------------------------|
D|--------------7------------------------------------------------------------|
A|---------------------------------------------------------------------------|
E|---------------------------------------------------------------------------|


| p  pull-off

===============================================================================
Comments