Chris Murray - Rock Steady Chords & Tabs

 

Rock Steady Chords & Tabs

Chris Murray Chords & Tabs

Version: 1 Type: Tab 0 ratings
1 star 2 stars 3 stars 4 stars 5 stars
comments

Rock Steady Tab

   
http://www.chrismurray.net/
canadian solo artist
previous band:King Apparatus
-------------------------------------------------------------------------------
			     Rock Steady - Chris Murray
-------------------------------------------------------------------------------

Tabbed by:DoubleAron
Email:a_ramcharitar@hotmail.com

Tuning:E,A,D,G,B,E


this could be bass but I found it on my guitar
e|-----------------------------------------------------------|
B|-----------------------------------------------------------|
G|-----------------------------------------------------------|
D|-----------------------------------------------------------|
A|----------7----------9------7--------7---------------------|
E|----5--9-----10--10-----10-----5--9-----5------------------|

*ska beat of coarse
[ Tab from: http://www.guitartabs.cc/tabs/c/chris_murray/rock_steady_tab.html ]
		A      D      E      A
e|--------------5------5------7------5-----------------------|
B|--------------5------7------9------5-----------------------|
G|--------------6------7------9------6-----------------------|
D|--------------7------7------9------7-----------------------|
A|--------------7------5------7------7-----------------------|
E|--------------5------5------7------5-----------------------|


| /  slide up
| \  slide down
| h  hammer-on
| p  pull-off
| ~  vibrato
| +  harmonic
| x  Mute note

Lyrics

Rock Steady

rock steady
steady with me

I don't want to change the world tonight
just tell me if it feels right darling
this moment can never repeat
will you rock steady, steady with me

I don't want to have to say goodnight
not before we see the sunlight darling
tomorrow can never be seen
will you rock steady, steady with me

I don't want to change the world tonight
just tell me if it feels right darling
don't fight it, you're already free
when you rock steady, steady with me
===============================================================================
Comments