Chris Isaak - Blue Hotel Chords & Tabs

 

Blue Hotel Chords & Tabs

Chris Isaak Chords & Tabs

Version: 1 Type: Bass Tab 0 ratings
1 star 2 stars 3 stars 4 stars 5 stars
comments

Blue Hotel Bass Tab

   


Blue Hotel     Chris Isaak                             Bass tab

TablEdited by Jan Bjorklund
Tuning : E A D G 	Time Signature: 4/4

  |       |       |       |          |       |       |       |         
||---------------------------------|---------------------------------||
|*---------------------------------|---------------------------------*|
||2-----------2--------------------|---------------------------------||
||------------------------2--------|-3-----------2-------------------||
[ Tab from: http://www.guitartabs.cc/tabs/c/chris_isaak/blue_hotel_btab.html ]
>3|       |       |       |          |       |       |       |         
||---------------------------------|---------------------------------||
|*---------------------------------|-2-----------2-------------------*|
||2-----------2--------------------|-------------------------2-------||
||------------------------2--------|---------------------------------||

  |       |       |       |          |       |       |       |         
|----------------------------------|----------------------------------|
|----------------------------------|----------------------------------|
|-------------5-----------5--------|-------------5-----------5--------|
|-3--------------------------------|-3--------------------------------|

  |       |       |       |          |       |       |       |         
|----------------------------------|----------------------------------|
|----------------------------------|----------------------------------|
|-------------4-----------4--------|----------------------------------|
|-2--------------------------------|-2--------------------------------|


Created with TablEdit http://www.tabledit.com/
Comments