Chris Gerolmo - Over There Chords & Tabs

 

Over There Chords & Tabs

Chris Gerolmo Chords & Tabs

Version: 1 Type: Tab

Over There Tab

   
-----------------------------------------------------------------------------
			 Over There - Chris Gerolmo
-----------------------------------------------------------------------------
Tabbed by:Kirk
Email:Woodpushin77@yahoo.com

Tuning:Standard

  Acoustic:

     Intro:
e|--33-----------------3p0---0--0-----------------223-55x-------------------|
B|--33-----------------3---3----3/5\3---------0-3-333-33x--1-------3--------|
G|--00---------------------------------2/4\2--0-2-222------0-----0-0h2--0---|
D|---------------------------------------------------------2--0h2-2----2----|
A|--------0h2-0---0----------------------------------------3--3-------------|
E|3------3------3---0-------------------------------------------------------|

     Verse:
e|--33---00----00-----------------------------------------------------------|
B|--33---00----22---1-------3-----------------------------------------------|
G|--00---00----33---0-----0-0h2-0-------------------------------------------|
D|-----------0------2--0h2-2---2--------------------------------------------|
A|------------------3--3----------------------------------------------------|
E|3----0--------------------------------------------------------------------|

e|--33---00----00-----------------------------------------------------------|
B|--33---00----22---1--------3----------------------------------------------|
G|--00---00----33---0-----0--0h2-0------------------------------------------|
D|-----------0------2--0h2-2----2-------------------------------------------|
A|------------------3--3----------------------------------------------------|
E|3----0--------------------------------------------------------------------|

      Bridge:
e|0--0-0-----------------0--0-2---------------------------------------------|
B|3--3-3--1------3-------3--3-3--1------------------------------------------|
G|2--2-2--0----0-0h2-0---2--2-2--0------------------------------------------|
D|0--0-0--2-0h2-2---2----0--0-0--2------------------------------------------|
A|--------3-3--------------------3------------------------------------------|
E|--------------------------------------------------------------------------|
[ Tab from: http://www.guitartabs.cc/tabs/c/chris_gerolmo/over_there_tab.html ]
      Chorus: This is Played In Background W/Electric Solo for Rest of Song
e|--33------00-------00-----------------------------------------------------|
B|--33------00-------22----1------------------------------------------------|
G|--00------00-------33----0------------------------------------------------|
D|----------------0--------2------------------------------------------------|
A|-------------------------3------------------------------------------------|
E|3-------0-----------------------------------------------------------------|


     Electric Solo:
e|-------------------------------|
B|------10-12-12-12-12\9---------|
G|-9h12------------------9-12~~~-|
D|-------------------------------|
A|-------------------------------|
E|-------------------------------|

e|----h--------------------------|
B|-10b12r10----------------------|
G|----------9-12b14r12~~~~~------|
D|-------------------------------|
A|-------------------------------|
E|-------------------------------|

e|-------------------------------|
B|-12h13h15-----10-12-13-15-15---|
G|-------------------------------|
D|-------------------------------|
A|-------------------------------|
E|-------------------------------|

e|-------------------------------------17---|
B|-13-15-13-15-13-15-13-15/17-17-17-17---17-|
G|------------------------------------------|
D|------------------------------------------|
A|------------------------------------------|
E|------------------------------------------|

e|-------------------------------------15~~~|
B|-17b19r17b19r17b19r17b19r17b19r17p15------|
G|------------------------------------------|
D|------------------------------------------|
A|------------------------------------------|
E|------------------------------------------|

e|-------------------------------|
B|-17-15-------------------------|
G|-------14h16\------------------|
D|-------------------------------|
A|-------------------------------|
E|-------------------------------|

e|-------------------------------|
B|-------12-12b13r12-10----------|
G|-12h14----------------12-9-7/9-|
D|-------------------------------|
A|-------------------------------|
E|-------------------------------|

e|-----------------------------------------|
B|-----------12b13r12-10-------------------|
G|-------9p7-------------12-9~~~~~~~~~~~---|
D|-7h9p7-----------------------------------|
A|-----------------------------------------|
E|-----------------------------------------

  Thanks TheGetch1 For The Solo

| /  slide up
| \  slide down
| h  hammer-on
| p  pull-off
| ~  vibrato
| +  harmonic
| x  Mute note
=========================================================================