Chris Daughtry - Drown In You Chords & Tabs

 

Drown In You Chords & Tabs

Chris Daughtry Chords & Tabs

Version: 2 Type: Tab 0 ratings
1 star 2 stars 3 stars 4 stars 5 stars
comments

Drown In You Tab

Drown In You
by Daughtry
On the game Batman: Arkham City
Tabbed By: RedneckJedynak

This my first tab. It is not complete yet but I wanna put this out there so if 
people figure out the solo before I do send it to me at jedynak.alex@hotmail.com
as Courier New font 
I do Have the bridge I just haven't typed it yet.
I will try to have it soon.
Please rate!!!

[]= Bass Part (can be played by guitar)

Tuning: Drop D

Intro/Verse Part A                              Verse Part B
Guitar 1                                                Guitar 1
E|-----------------10------------|      |---------------------10--|
B|------10-----------------------|      |-------------------------|
G|----------9--10------9--10--7--|X3    |----9--10------7---------|
D|---0---------------------------|      |------------------7------|
A|-------------------------------|      |-------------------------|
D|-------------------------------|      |-------------------------|

Guitar 2
E|-------------------------------|      |-------------------------|
B|-------------------------------|      |-------------------------|
G|-------------------------------|X1    |-------------------------|
D|-------------------------------|2nd   |-------------------------|
A|-------------------------------|time  |-------------------------|
D|------------------------[1/11]-|      |[10]------[8]------------|

Verse Part C
Guitar 1
E|-------10-------10-----|--------8--------8-----|---|
B|----10----10-------10--|-----8-----8--------8--|---|
G|-10----------10--------|--8-----------8--------|---|
D|-----------------------|-----------------------|---|
A|-----------------------|-----------------------|---|
D|-----------------------|-----------------------|---|

Guitar 2                                        2nd time only
E|-----------------------|-----------------------|-0-|
B|-----------------------|-----------------------|-3-|
G|-----------------------|-----------------------|-2-|
D|-----------------------|-----------------3-2-0-|-0-|
A|-----------------------|---------------------0-|-0-|
D|-[3]-------------------|[3br3br3]------------0-|-0-|

Pre-Chorus
Guitar 1
E|------------------------------------|
B|------------------------------------|
G|------------------------------------|
D|--5-5-5-5-5-5-5-5--7-7-7-7----------|
A|--5-5-5-5-5-5-5-5--7-7-7-7----------|
D|--5-5-5-5-5-5-5-5--7-7-7-7--0-2-3-0-|
 pm . . . . . . . .  . . . .

Guitar 2
E|------------------------------------|
B|------------------------------------|
G|------------------------------------|
D|--5-5-5-5-5-5-5-5--7-7-7-7----------|
A|--5-5-5-5-5-5-5-5--7-7-7-7----------|
D|--5-5-5-5-5-5-5-5--7-7-7-7----------|
 pm . . . . . . . .  . . . . 

Chorus
Both Guitars
E|-----------------------------------------|
B|-----------------------------------------|
G|-----------------------------------------|X3
D|--8-8-8-8--10-10-10-10--0-0-0-0-0-0-0-0--|
A|--8-8-8-8--10-10-10-10--0-0-0-0-0-0-0-0--|
D|--8-8-8-8--10-10-10-10--0-0-0-0-0-0-0-0--|

E|-----------------------------------------|
B|-----------------------------------------|
G|-----------------------------------------|
D|--8-8-8-8--10-10-10-10-------12-------10-|
A|--8-8-8-8--10-10-10-10-------12-------10-|
D|--8-8-8-8--10-10-10-10-------12-------10-|

E|-----------------------------------------|
B|-----------------------------------------|
G|-----------------------------------------|
D|--8-8-8-8--10-10-10-10-------------------|
A|--8-8-8-8--10-10-10-10-------------------|
D|--8-8-8-8--10-10-10-10-----12-14-15-12---|
[ Tab from: http://www.guitartabs.cc/tabs/c/chris_daughtry/drown_in_you_tab_ver_2.html ]
Post-Chorus
Both Guitars
E|-------------------------------------|
B|-------------------------------------|
G|-----------10-----------10-------10--|
D|--x-x-x-x--x---x-x-x-x--x---x-x--x---|
A|--x-x-x-x--8---x-x-x-x--8---x-x--8---|
D|--x-x-x-x------x-x-x-x------x-x------|

E|-------------------------------------|
B|-------------------------------------|
G|-----------9------------9--------9---|
D|--x-x-x-x--x---x-x-x-x--x---x-x--x---|
A|--x-x-x-x--7---x-x-x-x--7---x-x--7---|
D|--x-x-x-x------x-x-x-x------x-x------|

E|-------------------------------------|
B|-------------------------------------|
G|-----------12-----------12-------12--|
D|--x-x-x-x--x---x-x-x-x--x---x-x--x---|
A|--x-x-x-x--10--x-x-x-x--10--x-x--10--|
D|--x-x-x-x------x-x-x-x------x-x------|

E|--------------------------------------------|
B|--------------------------------------------|
G|-----------10-----------10------------------|
D|--x-x-x-x--x---x-x-x-x--x----6h7-6h7-6h7~~--|
A|--x-x-x-x--8---x-x-x-x--8-------------------|
D|--x-x-x-x------x-x-x-x----------------------|

Intro/Verse Part A                              Verse Part B
Guitar 1                                                Guitar 1
E|-----------------10------------|      |---------------------10--|
B|------10-----------------------|      |-------------------------|
G|----------9--10------9--10--7--|      |----9--10------7---------|
D|---0---------------------------|      |------------------7------|
A|-------------------------------|      |-------------------------|
D|-------------------------------|      |-------------------------|

Guitar 2
E|-------------------------------|      |-------------------------|
B|-------------------------------|      |-------------------------|
G|-------------------------------|      |-------------------------|
D|-------------------------------|      |-------------------------|
A|-------------------------------|      |-------------------------|
D|-------------------------------|      |[10--7--9--8]------------|

Verse Part C
Guitar 1
E|-------10-------10-----|--------8--------8-----|---|
B|----10----10-------10--|-----8-----8--------8--|---|
G|-10----------10--------|--8-----------8--------|---|
D|-----------------------|-----------------------|---|
A|-----------------------|-----------------------|---|
D|-----------------------|-----------------------|---|

Guitar 2                                        2nd time only
E|-----------------------|-----------------------|-0-|
B|-----------------------|-----------------------|-3-|
G|-----------------------|-----------------------|-2-|
D|-----------------------|-----------------3-2-0-|-0-|
A|-----------------------|---------------------0-|-0-|
D|-[3]-------------------|[3br3br3]------------0-|-0-|

Pre-Chorus
Guitar 1
E|------------------------------------|
B|------------------------------------|
G|------------------------------------|
D|--5-5-5-5-5-5-5-5--7-7-7-7----------|
A|--5-5-5-5-5-5-5-5--7-7-7-7----------|
D|--5-5-5-5-5-5-5-5--7-7-7-7--0-2-3-0-|
 pm . . . . . . . .  . . . .

Chorus
Both Guitars
E|-----------------------------------------|
B|-----------------------------------------|
G|-----------------------------------------|X3
D|--8-8-8-8--10-10-10-10--0-0-0-0-0-0-0-0--|
A|--8-8-8-8--10-10-10-10--0-0-0-0-0-0-0-0--|
D|--8-8-8-8--10-10-10-10--0-0-0-0-0-0-0-0--|

E|-----------------------------------------|
B|-----------------------------------------|
G|-----------------------------------------|
D|--8-8-8-8--10-10-10-10-------12-------10-|
A|--8-8-8-8--10-10-10-10-------12-------10-|
D|--8-8-8-8--10-10-10-10-------12-------10-|

E|-----------------------------------------|
B|-----------------------------------------|
G|-----------------------------------------|
D|--8-8-8-8--10-10-10-10-------------------|
A|--8-8-8-8--10-10-10-10-------------------|
D|--8-8-8-8--10-10-10-10-----12-14-15-12---|
Comments