Chris Cornell - Mission Chords & Tabs

 

Mission Chords & Tabs

Chris Cornell Chords & Tabs

Version: 1 Type: Tab 0 ratings
1 star 2 stars 3 stars 4 stars 5 stars
comments

Mission Tab

   
Person: Alex (Adder_XYU@hotmail.com)

song: Mission

artist: Chris Cornell

tab: Mission			Chris Cornell		Euphoria Morning, 1999

Main Riff:
e|----------------|----------------|----------------|----------------|
B|----------------|----------------|----------------|----------------|
G|--------------4-|--------------3-|--------------4-|----------------|
D|----0h2---0h2---|----0h2---0h2---|----0h2---0h2---|----------3-2-0-|
A|----------------|----------------|----------------|------0-1-------|
E|-0------0-------|-0------0-------|-0------0-------|-0--3-----------|

Riff #2:
e|----------------|----------------|
B|----------------|----------------|
G|----------------|----------------|
D|--------3-------|-2--------------|
A|-2------1-------|-0--------------|
E|-0--------------|------------0h1-|

“Tear all your temples down”
e|----------------|--------3-2-----|
B|----------------|------------4-0-|
G|----------------|----------------|
D|--------2-------|-4--------------|
A|-2------0-------|-2--------------|
E|-0--------------|----------------|
[ Tab from: http://www.guitartabs.cc/tabs/c/chris_cornell/mission_tab.html ]
Interlude:
e|-12----12-11-10-|-----------------------------------------|
B|----------------|-10b(11)r10-8-10-8-----8-----------------|
G|----------------|-------------------9-9---9-2b(3)----r2p0-|
D|----------------|-----------------------------------------|

e|-12----12-11-15-|-----------------------------------------|
B|----------------|-10b(11)r10-8-10-8-----8-----------------|
G|----------------|-------------------9-9---9-2b(3)----r2p0-|
D|----------------|-----------------------------------------|


Lead into solo (also ending):
e|-3--------|-0-------------------|-3----3--3---3--3----3--3---3-|
B|-3---r----|-0-------------------|-3----3--3---3--3----3--3---3-|
G|-0---e----|-0-------------------|-3----3--3---3--3----3--3---3-|
D|-0---s----|-2-------------------|-3----3--3---3--3----3--3---3-|
A|-2---t----|-2-------------------|-3----3--3---3--3----3--3---3-|
E|-3--------|-0-------------------|-3----3--3---3--3----3--3---3-|
	 I have nothing, but then the have is not as good as the 

e|-3-3-3-3-3-3-3-3-|
B|-3-3-3-3-3-3-3-3-|
G|-3-3-3-3-3-3-3-3-|
D|-3-3-3-3-3-3-3-3-|
A|-3-3-3-3-3-3-3-3-|
e|-3-3-3-3-3-3-3-3-|
   W   a   n   t

I don’t have the solo up here, but this is the meat of the song… in
fact, this is all you really need.  Enjoy. –Al (Adder_XYU@hotmail.com)

Comments