Chris Connelly - Daredevil Chords & Tabs

 

Daredevil Chords & Tabs

Chris Connelly Chords & Tabs

Version: 1 Type: Tab 0 ratings
1 star 2 stars 3 stars 4 stars 5 stars
comments

Daredevil Tab

   
#-----------------------------PLEASE NOTE-------------------------------------#
#This OLGA file is the author's own work and represents their interpretation  #
#of the song. You may only use this file for private study, scholarship, or   #
#research. Remember to view this file in Courier, or other monospaced font.   #
#See http://www.olga.net/faq/ for more information.                           #
#-----------------------------------------------------------------------------#

Subject: c/connelly_chris/daredevil.crd
Date: Thu, 12 Jun 1997 21:04:51 -0500 (CDT)
From: REMSPECHER 

If I made any errors or if you think I'm way off or whatever please send me
some mail telling me so and at what part.

Chord Shapes:  D   G   C
e--------------2---2---0-----------------|
b--------------3---0---1-----------------|
g--------------2---0---0-----------------|
d--------------0---0---2-----------------|
a------------------X---3-----------------|
e------------------2---------------------|


     D                                 G
The, bitter-edged distress distempers parody,

C                                    D
move your burlesque, bite the heat eternity.

   D                                         G
In half the time you will dive below your deficit,

    C                                  D
and cut from top to bottom, we are the same.

           D                    G
Sink for a season, returning to drown.

         C                                  D
You will lift up a head for hex to send the spirit down.

            D                      G
Cold on the inside despite in your face,

    C                                                       D
the chain of disdain is unbroken dissolve, and you leave no trace.


The solo starting at 1:07
~~~~~~~~~~~~~~~~~~~~~~~~~
        Well, I roughed out about half of the solo and it's fairly accurate.
After about 1:26 on the CD I have trouble hearing everything, but if you
really care it sounds like he kind of runs down the scale and then comes back
up ending on the F# I have at 1:40.  The chord progression through the solo
is just D and G.  Here is the G major scale on the proper place of the neck,
I think the whole solo is played at this neck position:

e--7-8-10---|
b--7-8-10---|
g--7-9------|
d--7-9-10---|
a--7-9-10---|
e--7-8-10---|

And here is the solo, if anyone would like to complete and/or correct what
I have that would be cool:
[ Tab from: http://www.guitartabs.cc/tabs/c/chris_connelly/daredevil_tab.html ]
---------------------------------------------------------10^8---8-8-8-8-8-8-|
--8-7-8-------7-------8-7-8-10----10----10----10----10----------------------|
----------------------------------------------------------------------------|
----------------------------------------------------------------------------|
----------------------------------------------------------------------------|
----------------------------------------------------------------------------|

8---8---8---8---8---8---8---8-7-------8-7----------8-------8----------10-8-|
--------------------------------10--------10-8-7-----10------10----10------|
---------------------------------------------------------------------------|
---------------------------------------------------------------------------|
---------------------------------------------------------------------------|
---------------------------------------------------------------------------|
         1:26
10---10--10-8-7---8--------------------------------------------------------|
---------------------10--------8---8---8---8---8---------------------------|
---------------------------------------------------------------------------|
---------------------------------------------------------------------------|
---------------------------------------------------------------------------|
---------------------------------------------------------------------------|
                                          1:40
---------------------------------------------------------------------------|
------------------------------------------7--------------------------------|
---------------------------------------------------------------------------|
---------------------------------------------------------------------------|
---------------------------------------------------------------------------|
---------------------------------------------------------------------------|

                 D                    G            C
You freeze frame fanatic, deliverance-dies, if the war be absurb,

                                D
then everything touched will be your disguise.


And Chris whistling at the end.
e----5--------------------------------------------------|
b------------8---7--------5----7--5---------------------|
g---------------------------------------7---------------|
d-------------------------------------------------------|
a-------------------------------------------------------|
e-------------------------------------------------------|

e----3--------------------------------------------------|
b------------6---5--------3----5--3---------------------|
g---------------------------------------5---------------|
d-------------------------------------------------------|
a-------------------------------------------------------|
e-------------------------------------------------------|
Comments