Chopin - Prelude N 6 Op Chords & Tabs

 

Prelude N 6 Op Chords & Tabs

Chopin Chords & Tabs

Version: 1 Type: Tab 1 rating
1 star 2 stars 3 stars 4 stars 5 stars
comments

Prelude N 6 Op Tab

   
#----------------------------------PLEASE NOTE---------------------------------#
#This file is the author's own work and represents their interpretation of the #
#song. You may only use this file for private study, scholarship, or research. #
#------------------------------------------------------------------------------##

                                PRELUDE OP 28 N°6
                              As recorded by Chopin
                       (From the 2003 Album PRELUDE OP 28)

Music by F.F.Chopin
Arranged by Nicola Congiargiu
Transcribed by Nicola Congiargiu

Gtr I (E A D G B E) - 'rg 320 fa clean'

  Q=56
 3/4
  Gtr I
  S S S S Q  E. S   Q. E E E   S S S S Q E. S   Q. E E E   S S S S Q Q
|-----------------|----------|----------------|----------|---------3----|
|---------3-----3-|----------|-------3-7-5--7-|-3--------|-------3---7--|
|-------4----6----|-4--------|-----4----------|----4-----|-----4--------|
|-----4-----------|----4-----|---4------------|------4---|--------------|
|---5-------------|------5-4-|----------------|--------5-|---5----------|
|-7---------------|----------|-7--------------|----------|-3------------|


  Q  Q  E  E   E A E  E  E  E  E    E  E  Q E E
|------------|-------------------|--------------|
|-7--6--5--3-|---5-3-------------|--------------|
|------------|-6------6--3--4----|--3--4--------|
|------------|-------------------|--2--3--4-----|
|------------|-----------------5-|----------5-4-|
|------------|-------------------|--------------|


                                          Gtr I
  S  S  S  S  Q  E.  S    Q.   E   E   E
|-----------------------|----------------|
|-------------3------3--|----------------|
|----------4-----6------|-4--------------|
|-------4---------------|------4---------|
|----5------------------|----------5-----|
|-7---------------------|--------------7-|


  S  S  S  S  Q  E.  S   Q.  E  E  E
|----------------------|-------------|
|-------------3--5---6-|-5-----------|
|-------0--4-----------|-----5-------|
|----------------------|--------5----|
|----5-----------------|-----------3-|
|-3--------------------|-------------|


  S  S  S  S  Q  S  S  S  S   H  Q    Q.  E  S   S  S  S
|---------------------------|------|-----------------------|
|-------------5-------------|-5----|--5---7--5---3---------|
|----------0--------------0-|------|----------------6--4---|
|-------2--------------2----|------|-----------------------|
|----2--------------2-------|------|-----------------------|
|-0--------------0----------|------|-----------------------|

[ Tab from: http://www.guitartabs.cc/tabs/c/chopin/prelude_n_6_op_tab.html ]
  Q. E S S S S   S S S S H   H  Q   Q. E S S S S     Q.  E  S S S S
|--------------|-----------|------|---------------|------------------|
|-5--7-5-3-----|-----------|----8-|-5--7-5-3------|--5---7--5-3------|
|----------6-4-|-----------|------|----------6-4--|-------------6-4--|
|--------------|-7-5-0-2-4-|-5----|---------------|------------------|
|--------------|-----------|------|---------------|------------------|
|--------------|-----------|------|---------------|------------------|


                                   H.=H
  S S S S  H    H.   +S   S  S  S  Q  E.  S
|-------------|----|------------------------|
|-------------|----|---------------3------3-|
|-------------|----|------------4-----6-----|
|-7-5-0-2--4--|----|---------4--------------|
|-------------|----|------------------------|
|-------------|-0--|-(0)--7-----------------|


    Q.  E  E  E      H.      +Q   H
|---------------|--------|-------------*|
|---------------|--------|-------------*|
|---4-----------|--------|-------------*|
|-------4-------|--------|-------------*|
|----------5--4-|--------|-------------*|
|---------------|----7---|---(7)-------*|


Duration Legend
---------------
W - whole; H - half; Q - quarter; E - 8th; S - 16th; T - 32nd; X - 64th; a - acciaccatura
+ - note tied to previous; . - note dotted; .. - note double dotted
Uncapitalized letters represent notes that are staccato (1/2 duration)
Irregular groupings are notated above the duration line
Duration letters will always appear directly above the note/fret number it represents the
duration for.  Duration letters with no fret number below them represent rests.  Multi-
bar rests are notated in the form Wxn, where n is the number of bars to rest for.  Low
melody durations appear below the staff

Tablature Legend
----------------
 h   - hammer-on
 p   - pull-off
 b   - bend
 pb  - pre-bend
 r   - bend release (if no number after the r, then release immediately)
 /\  - slide into or out of (from/to "nowhere")
 s   - legato slide
 S   - shift slide
  - natural harmonic
[n]  - artificial harmonic
n(n) - tapped harmonic
 ~   - vibrato
 tr  - trill
 T   - tap
 TP  - trem. picking
 PM  - palm muting
\n/  - tremolo bar dip; n = amount to dip
 \n  - tremolo bar down
 n/  - tremolo bar up
/n\  - tremolo bar inverted dip
 =   - hold bend; also acts as connecting device for hammers/pulls
   - volume swell (louder/softer)
 x   - on rhythm slash represents muted slash
 o   - on rhythm slash represents single note slash

Misc Legend
-----------
 |  - bar
||  - double bar
||o - repeat start
o|| - repeat end
*|  - double bar (ending)
 :  - bar (freetime)
 $  - Segno
 &  - Coda
Tempo markers -  = BPM(8/16=s8/s16), where s8 = swing 8ths, s16 = swing 16ths


***************************************************************************************
* Generated using Power Tab Editor by Brad Larsen - http://powertab.guitarnetwork.org *
***************************************************************************************
Comments