Chopin - Prelude N7 Op.28 Chords & Tabs

 

Prelude N7 Op.28 Chords & Tabs

Chopin Chords & Tabs

Version: 1 Type: Tab 1 rating
1 star 2 stars 3 stars 4 stars 5 stars
comments

Prelude N7 Op.28 Tab

   
       #----------------------------------PLEASE NOTE---------------------------------#
       #This file is the author's own work and represents their interpretation of the #
       #song. You may only use this file for private study, scholarship, or research. #
       #------------------------------------------------------------------------------#

                                  PRELUDE OP.28 N°07
                           As writed by Frederic F. Chopin
                        (From the 1839 Album 24 PRELUDES OP.28)


Transcribed by Nicola Congiargiu

 Music by F.F.Chopin

 

Gtr I (E A D G B E) - 'Untitled'


  Q=80
 3/4
        Gtr I
                                ~~
  H      Q     E.  S  q   q     H     Q
|-----------|----------------|-------14--|
|-----------|-14--15-12--12--|-12----15--|
|-----------|--------13--13--|-13--------|
|-------14--|--------14--14--|-14--------|
|-----------|----------------|-----------|
|-----------|----------------|-----------|
|
|       Gtr I
| H.           Q      q   q     H     Q
|-----------|----------------|-----------|
|-----------|---------3---3--|--3--------|
|-----------|----------------|-----------|
|-----------|---------2---2--|--2--------|
|-----------|----------------|-----------|
|-----------|--0-------------|-----------|


                    ~~
   E.  S  q   q     H     Q     E.  S  Q    Q
|-11--12-17--17--|-17--------|-------------------|
|-13--14-14--14--|-14----14--|-11--12-15---15----|
|----------------|-----------|--------11---11----|
|----------------|-------14--|-11--12-12--(12)---|
|----------------|-----------|-------------------|
|----------------|-----------|-------------------|
|
|  Q      q   q     H     Q     Q      q    q
|----------------|-----------|-------------------|
|----------------|-----------|-------------------|
|---------9---9--|--9--------|---------4----4----|
|---------7---7--|--7--------|---------2----2----|
|----------------|-----------|-------------------|
|--5-------------|-----------|--0----------------|


   ~~                           ~~
   H     Q     E.  S  q   q     H     Q
|-----------|----------------|-----------|
|-15--------|--------14--14--|-14--------|
|-11----13--|-13--14---------|-----------|
|-12----12--|-12--11-11--11--|-11----14--|
|-----------|----------------|-----------|
|-----------|----------------|-----------|
|
|  H     Q     Q      q   q     H     Q
|-----------|----------------|-----------|
|-----------|----------------|-----------|
|--4--------|---------9---9--|--9--------|
|--2--------|---------7---7--|--7--------|
|-----------|---------7---7--|--7--------|
|-----------|--5-------------|-----------|

[ Tab from: http://www.guitartabs.cc/tabs/c/chopin/prelude_n7_op28_tab.html ]
                       ~~
    E.   S   q   q     H     Q     E.  S  Q   Q
|-------------------|-------14--|-11--12-21--21----|
|--14---15--12--12--|-12----15--|-13--14-22--22----|
|--13--(13)-13--13--|-13--------|--------21--21----|
|-(14)-(14)-14--14--|-14--------|--------23--23----|
|-------------------|-----------|------------------|
|-------------------|-----------|------------------|
|
|   Q        q   q     H     Q     Q      q   q
|-------------------|-----------|------------------|
|------------3---3--|--3--------|------------------|
|-------------------|-----------|---------9---9----|
|------------2---2--|--2--------|---------7---7----|
|-------------------|-----------|------------------|
|---0---------------|-----------|--5---------------|


                                           H.=H
                                ~~                              ~~
   H     Q     E.  S  q   q     H     Q     E.  S  a  q   q     H    Q
|-21--------|--------14--14--|-14--------|-----------17--17--|-17--------*|
|-23----14--|-14--15---------|-----------|-12--------14--14--|-14--------*|
|-21----15--|-15--16-16--14--|-13----13--|-----14-14-14------|-14--------*|
|-23--------|----------------|-------12--|-12--11------------|-----------*|
|-----------|----------------|-----------|-------------------|-----------*|
|-----------|----------------|-----------|-------------------|-----------*|
|
|  H     Q     Q      q   q     H     Q     Q         q   q     H    Q
|-----------|----------------|-----------|-------------------|-----------*|
|-----------|----------------|-----------|-------------------|-----------*|
|-11--------|---------7---7--|--7--------|------------9---9--|--9--------*|
|-11--------|-------------9--|--9--------|------------7---7--|--7--------*|
|--9--------|---------9---9--|--7--------|------------7---7--|-----------*|
|-----------|--7-------------|-----------|--5----------------|-----------*|




--------------------------------------------------------------------------------


Duration Legend
---------------
W - whole; H - half; Q - quarter; E - 8th; S - 16th; T - 32nd; X - 64th; a - acciaccatura
+ - note tied to previous; . - note dotted; .. - note double dotted
Uncapitalized letters represent notes that are staccato (1/2 duration)
Irregular groupings are notated above the duration line
Duration letters will always appear directly above the note/fret number it represents the
duration for.  Duration letters with no fret number below them represent rests.  Multi-
bar rests are notated in the form Wxn, where n is the number of bars to rest for.  Low
melody durations appear below the staff

Tablature Legend
----------------
 h   - hammer-on
 p   - pull-off
 b   - bend
 pb  - pre-bend
 r   - bend release (if no number after the r, then release immediately)
 /\  - slide into or out of (from/to "nowhere")
 s   - legato slide
 S   - shift slide
 - natural harmonic
[n]  - artificial harmonic
n(n) - tapped harmonic
 ~   - vibrato
 tr  - trill
 T   - tap
 TP  - trem. picking
 PM  - palm muting
\n/  - tremolo bar dip; n = amount to dip
 \n  - tremolo bar down
 n/  - tremolo bar up
/n\  - tremolo bar inverted dip
 =   - hold bend; also acts as connecting device for hammers/pulls
  - volume swell (louder/softer)
 x   - on rhythm slash represents muted slash
 o   - on rhythm slash represents single note slash

Misc Legend
-----------
 |  - bar
||  - double bar
||o - repeat start
o|| - repeat end
*|  - double bar (ending)
 :  - bar (freetime)
 $  - Segno
 &  - Coda
Tempo markers -  = BPM(8/16=s8/s16), where s8 = swing 8ths, s16 = swing 16ths

Comments