Chom Ass - Intikam Kani Chords & Tabs

 

Intikam Kani Chords & Tabs

Chom Ass Chords & Tabs

Version: 1 Type: Tab 0 ratings
1 star 2 stars 3 stars 4 stars 5 stars
comments

Intikam Kani Tab

Chom-Ass Intikam Kani!!!
                                                                      
E||------------------------------------------------------------------|
B||------------------------------------------------------------------|
G||------------------------------------------------------------------|
D||------3-------3-------2-------2-------3-------3-------2-------2---|
A||----3---3---3---3---2---2---2---2---3---3---3---3---2---2---2---2-|
E||--0-------0-------0-------0-------0-------0-------0-------0-------|
                                                                       
                                                                   
------------------------------------------------------------------|
------------------------------------------------------------------|
------------------------------------------------------------------|
------------------------------------------------------------------|
--0-3-3/5-0-3-3/5-0-3-3/5-0-3-3/5-0-3-3/5-0-3-3/5-0-3-3/5-0-3-3/5-|
--0-1-1/3-0-1-1/3-0-1-1/3-0-1-1/3-0-1-1/3-0-1-1/3-0-1-1/3-0-1-1/3-|

                                                                                     
-------------------|
-------------------|
-------------------|
--3----------------|
--3----------------|
--1----------------|


                                                           3x
|----------------------------------------------------------||
|----------------------------------------------------------||
|*--------------------------------------------------------*||
|*--5---------6---------5------2---------2---------2------*||
|---5---------6---------5------2---------2---------2-------||
|---3---------4---------3------0---------0---------0-------||


                                                                                
--------------------------------------------------------------------------------
--------------------------------------------------------------------------------
*-------------------------------------------------------------------------------
*--5---------6---------5------2---------2---------2------5---------6---------5--
---5---------6---------5------2---------2---------2------5---------6---------5--
---3---------4---------3------0---------0---------0------3---------4---------3--


                                                                                
--------------------------------------------------------------------------------
--------------------------------------------------------------------------------
--------------------------------------------------------------------------------
--------------------------------------------------------------------------------
--------------------------------------------------------------------------------
--3---------4---------3------0---------0---------0------3---------4---------3---
                                                                          
                                                                                
--------------------------------------------------------------------------------
--------------------------------------------------------------------------------
--------------------------------------------------------------------------------
--------------------------------------------------------------------------------
--------------------------------------------------------------------------------
------------------0-0---0-2-0-2-0-0---0-2-0-2-0-0---0-2-0-2-0-0---0-2-0-2-0-0---


                                                                                
--------------------------------------------------------------------------------
--------------------------------------------------------------------------------
--------------------------------------------------------------------------------
--------------------------------------------------------------------------------
--0-0-0-0-0-2-0-2-0-0-0-0-0-2-0-2-0-0-0-0-0-2-0-2-0-0-0-0-0-2-0-2-0-0-0-0-0-2-0-
--0-0-0-0-0-2-0-2-0-0-0-0-0-2-0-2-0-0-0-0-0-2-0-2-0-0-0-0-0-2-0-2-0-0-0-0-0-2-0-

[ Tab from: http://www.guitartabs.cc/tabs/c/chom_ass/intikam_kani_tab.html ]
2. Gitar!!!
                               
E||---------------------------|
B||-------------------------7-|
G||---------------------------|
D||---------------------------|
A||---------------------------|
E||---------------------------|


                                                   
--------------------------------------------------|
--8------7-10-7---5-4---7-8------7-10-7---5-4---7-|
--------------------------------------------------|
--------------------------------------------------|
--------------------------------------------------|
--------------------------------------------------|

                                                       
                                                                                
--------------------------------------------------------------------------------
--8-8-8-8-8-8-8-8-8-8-8-8-7-7-10-10-7-7-7-7-7-7-5-5-4-4-4-4-4-4-7-7-8-8-8-8-8-8-
--------------------------------------------------------------------------------
--------------------------------------------------------------------------------
--------------------------------------------------------------------------------
--------------------------------------------------------------------------------


                                                                                
--------------------------------------------------------------------------------
--8-8-8-8-8-8-8-8-8-8-8-8-7-7-10-10-7-7-7-7-7-7-5-5-4-4-4-4-4-4-7-7-8-8-8-8-8-8-
--------------------------------------------------------------------------------
--------------------------------------------------------------------------------
--------------------------------------------------------------------------------
--------------------------------------------------------------------------------


                    
-------------------|
-------------------|
-------------------|
--3----------------|
--3----------------|
--1----------------|


                                                                                
|-------------------------------------------------------------------------------
|-------------------------------------------------------------------------------
|*--5-5-5-5-5-5-5-5-5-5-5-5-6-6-6-6-6-6-6-6-6-6-6-6-5-5-5-5-5-5-5-5-2-2-2-2-2-2-
|*------------------------------------------------------------------------------
|---3-3-3-3-3-3-3-3-3-3-3-3-4-4-4-4-4-4-4-4-4-4-4-4-3-3-3-3-3-3-3-3-0-0-0-0-0-0-
|-------------------------------------------------------------------------------


                                                                                
||------------------------------------------------------------------------------
||------------------------------------------------------------------------------
||*-----------------------------------------------------------------------------
||*-----------------------------------------------------------------------------
||---5---------6---------5------2---------2---------2------5---------6---------5
||---3---------4---------3------0---------0---------0------3---------4---------3

                                                                                
--------------------------------------------------------------------------------
--------------------------------------------------------------------------------
--------------------------------------------------------------------------------
--------------------------------------------------------------------------------
------------------------------------------------------------0-0-----------------
------------------x-x---x-x-x-x-x-x---x-x-x-x-x-x---x-x-x-x-0-0---x-x-x-x-x-x---


                                                                                
--------------------------------------------------------------------------------
--------------------------------------------------------------------------------
--------------------------------------------------------------------------------
--------------------------------------------------------------------------------
--0-0-0-0-0-2-0-2-0-0-0-0-0-2-0-2-0-0-0-0-0-2-0-2-0-0-0-0-0-2-0-2-0-0-0-0-0-2-0-
--0-0-0-0-0-2-0-2-0-0-0-0-0-2-0-2-0-0-0-0-0-2-0-2-0-0-0-0-0-2-0-2-0-0-0-0-0-2-0-







Comments