Chom Ass - Hersey Bu Gece Chords & Tabs

 

Hersey Bu Gece Chords & Tabs

Chom Ass Chords & Tabs

Version: 1 Type: Tab 0 ratings
1 star 2 stars 3 stars 4 stars 5 stars
comments

Hersey Bu Gece Tab

                                    
E||-----------------------------------------------------------------------------
B||-----------------------------------------------------------------------------
G||--------7-----------5-----------7-----------5-----------11-----------9-------
D||-----5-----5-----3-----3-----5-----5-----3-----3-----9------9-----7-----7----
A||--5-----------3-----------5-----------3-----------9------------7-----------5-
E||-----------------------------------------------------------------------------
                                                                                                                                      
----------------------------------------------------------|
----------------------------------------------------------|
----------------------------------------------------------|
----------------------------------------------------------|
--x--x--x--x--x--x--x--x--x-x-x-x-x-x-x-x-x-x-x-x-x-x-x-x-|
--0--0--0--0--0--0--0--0--0-0-0-0-0-0-0-0-0-0-0-0-0-0-0-0-|


                                                        
---------------------------|
---------------------------|
---------------------------|
---------------------------|
---------------------------|
--0--7--8--7--9--7--10--7--|


|-----------------------------|
|-----------------------------|
|*--------------------------*-|
|*--7--7--x--x--x--x--x--x--*||
|---7--7--x--x--x--x--x--x---||
|---5--5--x--x--x--x--x--x---||

                                                                               
--------------------------------------------------------------------------------
--------------------------------------------------------------------------------
--------------------------------------------------------------------------------
---------------------------7---6---5---4---------------------------------7---6--
---------------------------7---6---5---4---------------------------------7---6--
--0--7--8--7--9--7--10--7--5---4---3---2--------0--7--8--7--9--7--10--7--5---4--

[ Tab from: http://www.guitartabs.cc/tabs/c/chom_ass/hersey_bu_gece_tab.html ]
                                                                                
||------------------------------------------------------------------------------
||------------------------------------------------------------------------------
||*-----------------------------------------------------------------------------
||*------7---6---5---4----1----7---6---5---4----1----7---6---5---4----1----7---6
||-------7---6---5---4----1----7---6---5---4----1----7---6---5---4----1----7---6
||-------5---4---3---2----1----5---4---3---2----1----5---4---3---2----1----5---4


                                                                                
--------------------------------------------------------------------------------
--------------------------------------------------------------------------------
--------------------------------------------------------------------------------
--------------------------------------------------------------------------------
------------------0--0--------------1--1--------------2--2--------------3--3----
------------------0--0--------------1--1--------------2--2--------------3--3----


                                                                                
||------------------------------------------------------------------------------
||------------------------------------------------------------------------------
||*-----------------------------------------------------------------------------
||*-----------------------------------------------------------------------------
||---0--0--------------1--1--------------2--2--------------3--3--------5--3--1--
||---0--0--------------1--1--------------2--2--------------3--3--------5--3--1--


                                                                     3x
--------------------------------------||-----------------------------||
--------------------------------------||-----------------------------||
--------------------------------------||*---------------------------*||
--------------------------------------||*---------------------------*||
--0--0--------------1--1--------------||-----------------------------||
--0--0--------------1--1--------------||---0--7--8--7--9--7--10--7---||


                            2x                            
----------------------------||--------------------------||
----------------------------||--------------------------||
*--------------------------*||--------------------------||
*--7--7--x--x--x--x--x--x--*||--7--7--x--x--x--x--x--x--||
---7--7--x--x--x--x--x--x---||--7--7--x--x--x--x--x--x--||
---5--5--x--x--x--x--x--x---||--5--5--x--x--x--x--x--x--||


Comments