Choking Victim - Suicide Chords & Tabs

 

Suicide Chords & Tabs

Choking Victim Chords & Tabs

Version: 2 Type: Bass Tab 0 ratings
1 star 2 stars 3 stars 4 stars 5 stars
comments

Suicide Bass Tab

artist: choking victim
song: suicide (a better way) 
Intro: Pick fast and hard. 
G:------------------------------------------------ 
D:------------------------------------------------ 
A:---44-444-455-554-2-00-000-022-222-2------------ 
E:------------------------------------------------ 

Chorus: Same rhythm as Intro. 
G:------------------------------------------------ 
D:-------------------77-777-799-999-9------------- 
A:---44-444-455-555-5----------------------------- 
E:------------------------------------------------ 
[ Tab from: http://www.guitartabs.cc/tabs/c/choking_victim/suicide_btab_ver_2.html ]
Verse: Bust the funk here. 
G:------------------------------------------------ 
D:-------6-6-----7-------------------------------- 
A:---4-4--4-4-55--5-----7-7-----9----------------- 
E:------------------5-5--5-5-77--7---------------- 

Breakdown: Same rhythm as intro and chorus. 
G:------------------------------------------------ 
D:--------------------55-555-533-333-3------------ 
A:---55-555-544-442-0----------------------------- 
E:------------------------------------------------ 

G:------------------------------------------------ 
D:-------------------55-55---55-55---------------- 
A:---55-555-544-442-0----------------------------- 
E:------------------------------------------------ 

*clap* *clap* *clap* now gimme beer ;) 
Comments