Choking Victim - Infested Chords & Tabs

 

Infested Chords & Tabs

Choking Victim Chords & Tabs

Version: 1 Type: Bass Tab 0 ratings
1 star 2 stars 3 stars 4 stars 5 stars
comments

Infested Bass Tab

   
artist: choking victim
song: infested 
Part A 
Punk Strumming 
G|---------------------------------------------------------| 
D|---------------------------------------------------------| 
A|7--7-7-7-7-7---------------------------------------------| 
E|---------------5--5-5-5-5-5--9--9-9-9-9-9--7--7-7-7-7-7--| 
  

Part B                       (Play part after stars only 
Let Ring Out                  The very last time, right before ska part) 
G|----------------------------*----------| 
D|----------------------------*----------| 
A|7---------------------------*----------| 
E|-------5-------9-------7----*--9--11---| 
[ Tab from: http://www.guitartabs.cc/tabs/c/choking_victim/infested_btab.html ]
Part C 
Ska   (Not Sure If This Is Right) 
G|-------------------------------------------------------| 
D|---------9--9-9-----5----------------------------------| 
A|-7--7-7-----------7---7----------7--7-7--7-------------| 
E|----------------5---------5--5-5------------9-7--5-55--| 
  
Part D 
Palm Muted 
G|--------------------------------| 
D|--------------------------------| 
A|7-7-----------------------------| 
E|-------5-5-----9-9--9-9----7-7--| 
  

This Is The Play Order Of The Song Fom Start To Finish: 

Part A  X6 
Part C  X4 
Part A  X2 
Part C  X2 
Part D  X2 
Part A  X2 
Part B  X6 
Part C  X2 
Part A  X6 

Comments