Choking Victim - Fucked Reality Chords & Tabs

 

Fucked Reality Chords & Tabs

Choking Victim Chords & Tabs

Version: 1 Type: Tab 0 ratings
1 star 2 stars 3 stars 4 stars 5 stars
comments

Fucked Reality Tab

   
-------------------------------------------------------------------------------
			    Fucked Reality- Choking Victim
-------------------------------------------------------------------------------
Tabbed by:Matt Gilles
Email:insaneotter9@yahoo.com

Tuning:Standard
Use heavy heavy distortion, strum hard to get that screech after the chords

EVERY part of the song has this power chord progression, so its pretttty goddamn easy

	(B)	(Fsharp)	(Csharp)	(E)
[ Tab from: http://www.guitartabs.cc/tabs/c/choking_victim/fucked_reality_tab.html ]
e|---------------------------------------------------------------------------|
B|---------------------------------------------------------------------------|
G|----------------11----------------------------10---------------------------|
D|-----10---------11--------------11------------10---------------------------|
A|-----10----------9--------------11-------------8---------------------------|
E|------8--------------------------9-----------------------------------------|



===============================================================================
Comments