Chixdiggit - Van Horne Chords & Tabs

 

Van Horne Chords & Tabs

Chixdiggit Chords & Tabs

Version: 1 Type: Bass Tab 0 ratings
1 star 2 stars 3 stars 4 stars 5 stars
comments

Van Horne Bass Tab

VAN HORNE
CHIXDIGGIT
>From self titled
tabbed by Mike

Intro
G-------------------------------------------------------
D-------------------------------------------------------
A---------3-3-3-3---------3-3-3-3---------3-3-3-3-7-5-3- x2
E-3-3-3-3---------3-3-3-3---------3-3-3-3---------------Verse 1

G-----------------------------------------------
D -------------------------------0-0-0-0-0-0-0-0superfast
A-----------------3-3-3-3-3-3-3-3 superfast-----
E-3-3-3-3-3-3-3-3-------------------------------
Pre Chorus

G---------------------------------------------------
D---------0-0-0-0---------------------------0-0-0-0-
A-------------------------3-3-3-3-------------------
E-3-3-3-3---------3-3-3-3----------3-3-3-3----------Chorus (same as intro)
[ Tab from: http://www.guitartabs.cc/tabs/c/chixdiggit/van_horne_btab.html ]
G--------------------------------------
D--------------------------------------
A---------3-3-3-3---------3-3-3-3-7-5-3
E-3-3-3-3---------3-3-3-3--------------

Verse 2
G------------------------------------------------
D---------------------------------1-1-1-1-1-1-1-1
A-----------------4-4-4-4-4-4-4-4----------------
E-4-4-4-4-4-4-4-4--------------------------------Pre Chorus 2

G----------------------------------------------------
D---------1-1-1-1---------------------------1-1-1-1--
A-------------------------4-4-4-4--------------------
E-4-4-4-4---------4-4-4-4----------4-4-4-4-----------Chorus 2

G----------------------------------------
D----------------------------------------
A---------4-4-4-4----------4-4-4-4-8-6-4-
E-4-4-4-4---------4-4-4-4----------------

There are a few mistakes I know. if you can fix them please do
Comments